ISO-10303-21;
HEADER;
/* Generated by software containing ST-Developer
 * from STEP Tools, Inc. (www.steptools.com) 
 */

FILE_DESCRIPTION(
/* description */ (''),
/* implementation_level */ '2;1');

FILE_NAME(
/* name */ 
'M:\\Inventor Vorlage\\1_I-Baukasten\\9_Dynamikelemente\\3_F\X\FChrung
swellen\\ZI-1659_Fuehrungswelle_D10_blank\\ZI-1659_doku\\ZI-1659_Fuehr
ungswelle_D10_blank.stp',
/* time_stamp */ '2020-07-20T17:45:06+02:00',
/* author */ ('jmaun'),
/* organization */ (''),
/* preprocessor_version */ 'ST-DEVELOPER v17',
/* originating_system */ 'Autodesk Inventor 2019',
/* authorisation */ '');

FILE_SCHEMA (('AUTOMOTIVE_DESIGN { 1 0 10303 214 3 1 1 }'));
ENDSEC;

DATA;
#10=MECHANICAL_DESIGN_GEOMETRIC_PRESENTATION_REPRESENTATION('',(#38,#39,
#40,#41),#95);
#11=SHAPE_REPRESENTATION_RELATIONSHIP('SRR','None',#102,#12);
#12=ADVANCED_BREP_SHAPE_REPRESENTATION('',(#13),#94);
#13=MANIFOLD_SOLID_BREP('Volumenk\X\F6rper1',#45);
#14=PLANE('',#68);
#15=PLANE('',#69);
#16=FACE_OUTER_BOUND('',#19,.T.);
#17=FACE_OUTER_BOUND('',#20,.T.);
#18=FACE_OUTER_BOUND('',#21,.T.);
#19=EDGE_LOOP('',(#31,#32,#33,#34));
#20=EDGE_LOOP('',(#35));
#21=EDGE_LOOP('',(#36));
#22=LINE('',#88,#23);
#23=VECTOR('',#76,5.);
#24=CIRCLE('',#66,5.);
#25=CIRCLE('',#67,5.);
#26=VERTEX_POINT('',#85);
#27=VERTEX_POINT('',#87);
#28=EDGE_CURVE('',#26,#26,#24,.T.);
#29=EDGE_CURVE('',#26,#27,#22,.T.);
#30=EDGE_CURVE('',#27,#27,#25,.T.);
#31=ORIENTED_EDGE('',*,*,#28,.F.);
#32=ORIENTED_EDGE('',*,*,#29,.T.);
#33=ORIENTED_EDGE('',*,*,#30,.F.);
#34=ORIENTED_EDGE('',*,*,#29,.F.);
#35=ORIENTED_EDGE('',*,*,#30,.T.);
#36=ORIENTED_EDGE('',*,*,#28,.T.);
#37=CYLINDRICAL_SURFACE('',#65,5.);
#38=STYLED_ITEM('',(#112),#42);
#39=STYLED_ITEM('',(#112),#43);
#40=STYLED_ITEM('',(#112),#44);
#41=STYLED_ITEM('',(#111),#13);
#42=ADVANCED_FACE('',(#16),#37,.T.);
#43=ADVANCED_FACE('',(#17),#14,.F.);
#44=ADVANCED_FACE('',(#18),#15,.T.);
#45=CLOSED_SHELL('',(#42,#43,#44));
#46=DERIVED_UNIT_ELEMENT(#48,1.);
#47=DERIVED_UNIT_ELEMENT(#97,3.);
#48=(
MASS_UNIT()
NAMED_UNIT(*)
SI_UNIT($,.GRAM.)
);
#49=DERIVED_UNIT((#46,#47));
#50=MEASURE_REPRESENTATION_ITEM('density measure',
POSITIVE_RATIO_MEASURE(1.),#49);
#51=PROPERTY_DEFINITION_REPRESENTATION(#56,#53);
#52=PROPERTY_DEFINITION_REPRESENTATION(#57,#54);
#53=REPRESENTATION('material name',(#55),#94);
#54=REPRESENTATION('density',(#50),#94);
#55=DESCRIPTIVE_REPRESENTATION_ITEM('Generisch','Generisch');
#56=PROPERTY_DEFINITION('material property','material name',#104);
#57=PROPERTY_DEFINITION('material property','density of part',#104);
#58=DATE_TIME_ROLE('creation_date');
#59=APPLIED_DATE_AND_TIME_ASSIGNMENT(#60,#58,(#104));
#60=DATE_AND_TIME(#61,#62);
#61=CALENDAR_DATE(2020,9,6);
#62=LOCAL_TIME(11,55,45.,#63);
#63=COORDINATED_UNIVERSAL_TIME_OFFSET(0,0,.BEHIND.);
#64=AXIS2_PLACEMENT_3D('placement',#83,#70,#71);
#65=AXIS2_PLACEMENT_3D('',#84,#72,#73);
#66=AXIS2_PLACEMENT_3D('',#86,#74,#75);
#67=AXIS2_PLACEMENT_3D('',#89,#77,#78);
#68=AXIS2_PLACEMENT_3D('',#90,#79,#80);
#69=AXIS2_PLACEMENT_3D('',#91,#81,#82);
#70=DIRECTION('axis',(0.,0.,1.));
#71=DIRECTION('refdir',(1.,0.,0.));
#72=DIRECTION('center_axis',(0.,0.,1.));
#73=DIRECTION('ref_axis',(-1.,0.,0.));
#74=DIRECTION('center_axis',(0.,0.,1.));
#75=DIRECTION('ref_axis',(-1.,0.,0.));
#76=DIRECTION('',(0.,0.,-1.));
#77=DIRECTION('center_axis',(0.,0.,-1.));
#78=DIRECTION('ref_axis',(-1.,0.,0.));
#79=DIRECTION('center_axis',(0.,0.,1.));
#80=DIRECTION('ref_axis',(1.,0.,0.));
#81=DIRECTION('center_axis',(0.,0.,1.));
#82=DIRECTION('ref_axis',(1.,0.,0.));
#83=CARTESIAN_POINT('',(0.,0.,0.));
#84=CARTESIAN_POINT('Origin',(0.,0.,0.));
#85=CARTESIAN_POINT('',(5.,6.12323399573677E-16,100.));
#86=CARTESIAN_POINT('Origin',(0.,0.,100.));
#87=CARTESIAN_POINT('',(5.,6.12323399573677E-16,0.));
#88=CARTESIAN_POINT('',(5.,6.12323399573677E-16,0.));
#89=CARTESIAN_POINT('Origin',(0.,0.,0.));
#90=CARTESIAN_POINT('Origin',(-2.36064120735332E-16,0.,0.));
#91=CARTESIAN_POINT('Origin',(-2.36064120735332E-16,0.,100.));
#92=UNCERTAINTY_MEASURE_WITH_UNIT(LENGTH_MEASURE(0.01),#96,
'DISTANCE_ACCURACY_VALUE',
'Maximum model space distance between geometric entities at asserted c
onnectivities');
#93=UNCERTAINTY_MEASURE_WITH_UNIT(LENGTH_MEASURE(0.01),#96,
'DISTANCE_ACCURACY_VALUE',
'Maximum model space distance between geometric entities at asserted c
onnectivities');
#94=(
GEOMETRIC_REPRESENTATION_CONTEXT(3)
GLOBAL_UNCERTAINTY_ASSIGNED_CONTEXT((#92))
GLOBAL_UNIT_ASSIGNED_CONTEXT((#96,#99,#98))
REPRESENTATION_CONTEXT('','3D')
);
#95=(
GEOMETRIC_REPRESENTATION_CONTEXT(3)
GLOBAL_UNCERTAINTY_ASSIGNED_CONTEXT((#93))
GLOBAL_UNIT_ASSIGNED_CONTEXT((#96,#99,#98))
REPRESENTATION_CONTEXT('','3D')
);
#96=(
LENGTH_UNIT()
NAMED_UNIT(*)
SI_UNIT(.MILLI.,.METRE.)
);
#97=(
LENGTH_UNIT()
NAMED_UNIT(*)
SI_UNIT(.CENTI.,.METRE.)
);
#98=(
NAMED_UNIT(*)
SI_UNIT($,.STERADIAN.)
SOLID_ANGLE_UNIT()
);
#99=(
NAMED_UNIT(*)
PLANE_ANGLE_UNIT()
SI_UNIT($,.RADIAN.)
);
#100=SHAPE_DEFINITION_REPRESENTATION(#101,#102);
#101=PRODUCT_DEFINITION_SHAPE('',$,#104);
#102=SHAPE_REPRESENTATION('',(#64),#94);
#103=PRODUCT_DEFINITION_CONTEXT('part definition',#108,'design');
#104=PRODUCT_DEFINITION('ZI-1659_Fuehrungswelle_D10_blank',
'ZI-1659_Fuehrungswelle_D10_blank',#105,#103);
#105=PRODUCT_DEFINITION_FORMATION('',$,#110);
#106=PRODUCT_RELATED_PRODUCT_CATEGORY(
'ZI-1659_Fuehrungswelle_D10_blank','ZI-1659_Fuehrungswelle_D10_blank',(#110));
#107=APPLICATION_PROTOCOL_DEFINITION('international standard',
'automotive_design',2009,#108);
#108=APPLICATION_CONTEXT(
'Core Data for Automotive Mechanical Design Process');
#109=PRODUCT_CONTEXT('part definition',#108,'mechanical');
#110=PRODUCT('ZI-1659_Fuehrungswelle_D10_blank',
'ZI-1659_Fuehrungswelle_D10_blank',$,(#109));
#111=PRESENTATION_STYLE_ASSIGNMENT((#113));
#112=PRESENTATION_STYLE_ASSIGNMENT((#114));
#113=SURFACE_STYLE_USAGE(.BOTH.,#115);
#114=SURFACE_STYLE_USAGE(.BOTH.,#116);
#115=SURFACE_SIDE_STYLE('',(#117));
#116=SURFACE_SIDE_STYLE('',(#118));
#117=SURFACE_STYLE_FILL_AREA(#119);
#118=SURFACE_STYLE_FILL_AREA(#120);
#119=FILL_AREA_STYLE('',(#121));
#120=FILL_AREA_STYLE('',(#122));
#121=FILL_AREA_STYLE_COLOUR('',#123);
#122=FILL_AREA_STYLE_COLOUR('',#124);
#123=COLOUR_RGB('',0.749019607843137,0.749019607843137,0.749019607843137);
#124=COLOUR_RGB('',0.745098039215686,0.737254901960784,0.729411764705882);
ENDSEC;
END-ISO-10303-21;
