ISO-10303-21;
HEADER;
/* Generated by software containing ST-Developer
 * from STEP Tools, Inc. (www.steptools.com) 
 */

FILE_DESCRIPTION(
/* description */ (''),
/* implementation_level */ '2;1');

FILE_NAME(
/* name */ 
'M:\\Inventor Vorlage\\1_I-Baukasten\\6_Bedienelemente\\2_Handgriffe_A
l\\Nut_8\\ZI-1595_Handgriff_ALU_120_gebogen-8\\ZI-1595_Doku\\ZI-1595_H
andgriff_ALU_120_gebogen-8.stp',
/* time_stamp */ '2020-07-20T16:11:36+02:00',
/* author */ ('jmaun'),
/* organization */ ('maunsystem'),
/* preprocessor_version */ 'ST-DEVELOPER v17',
/* originating_system */ 'Autodesk Inventor 2019',
/* authorisation */ '');

FILE_SCHEMA (('AUTOMOTIVE_DESIGN { 1 0 10303 214 3 1 1 }'));
ENDSEC;

DATA;
#10=MECHANICAL_DESIGN_GEOMETRIC_PRESENTATION_REPRESENTATION('',(#173,#174,
#175,#176,#177,#178,#179,#180,#181,#182,#183,#184),#377);
#11=SHAPE_REPRESENTATION_RELATIONSHIP('SRR','None',#384,#12);
#12=ADVANCED_BREP_SHAPE_REPRESENTATION('',(#13),#376);
#13=MANIFOLD_SOLID_BREP('Volumenk\X\F6rper1',#196);
#14=PLANE('',#246);
#15=PLANE('',#247);
#16=LINE('',#361,#21);
#17=LINE('',#363,#22);
#18=LINE('',#365,#23);
#19=LINE('',#367,#24);
#20=LINE('',#371,#25);
#21=VECTOR('',#300,5.);
#22=VECTOR('',#303,5.);
#23=VECTOR('',#306,5.);
#24=VECTOR('',#309,5.);
#25=VECTOR('',#314,5.);
#26=CYLINDRICAL_SURFACE('',#239,5.);
#27=CYLINDRICAL_SURFACE('',#241,5.);
#28=CYLINDRICAL_SURFACE('',#242,5.);
#29=CYLINDRICAL_SURFACE('',#243,5.);
#30=CYLINDRICAL_SURFACE('',#244,5.);
#31=FACE_OUTER_BOUND('',#42,.T.);
#32=FACE_OUTER_BOUND('',#43,.T.);
#33=FACE_OUTER_BOUND('',#44,.T.);
#34=FACE_OUTER_BOUND('',#45,.T.);
#35=FACE_OUTER_BOUND('',#46,.T.);
#36=FACE_OUTER_BOUND('',#47,.T.);
#37=FACE_OUTER_BOUND('',#48,.T.);
#38=FACE_OUTER_BOUND('',#49,.T.);
#39=FACE_OUTER_BOUND('',#50,.T.);
#40=FACE_OUTER_BOUND('',#51,.T.);
#41=FACE_OUTER_BOUND('',#52,.T.);
#42=EDGE_LOOP('',(#117,#118,#119,#120,#121));
#43=EDGE_LOOP('',(#122,#123,#124,#125,#126,#127,#128));
#44=EDGE_LOOP('',(#129,#130,#131,#132,#133,#134));
#45=EDGE_LOOP('',(#135,#136,#137,#138,#139));
#46=EDGE_LOOP('',(#140,#141,#142,#143,#144));
#47=EDGE_LOOP('',(#145,#146,#147,#148,#149,#150));
#48=EDGE_LOOP('',(#151,#152,#153,#154,#155,#156));
#49=EDGE_LOOP('',(#157,#158,#159,#160,#161));
#50=EDGE_LOOP('',(#162,#163,#164,#165,#166));
#51=EDGE_LOOP('',(#167));
#52=EDGE_LOOP('',(#168));
#53=CIRCLE('',#217,5.);
#54=CIRCLE('',#218,12.);
#55=CIRCLE('',#219,5.);
#56=CIRCLE('',#220,5.);
#57=CIRCLE('',#222,5.);
#58=CIRCLE('',#223,12.);
#59=CIRCLE('',#224,5.);
#60=CIRCLE('',#225,5.);
#61=CIRCLE('',#226,5.);
#62=CIRCLE('',#227,5.);
#63=CIRCLE('',#229,5.);
#64=CIRCLE('',#230,12.);
#65=CIRCLE('',#231,5.);
#66=CIRCLE('',#232,5.);
#67=CIRCLE('',#233,5.);
#68=CIRCLE('',#235,5.);
#69=CIRCLE('',#236,12.);
#70=CIRCLE('',#237,5.);
#71=CIRCLE('',#238,5.);
#72=CIRCLE('',#240,5.);
#73=CIRCLE('',#245,5.);
#74=VERTEX_POINT('',#321);
#75=VERTEX_POINT('',#323);
#76=VERTEX_POINT('',#325);
#77=VERTEX_POINT('',#329);
#78=VERTEX_POINT('',#330);
#79=VERTEX_POINT('',#332);
#80=VERTEX_POINT('',#334);
#81=VERTEX_POINT('',#337);
#82=VERTEX_POINT('',#341);
#83=VERTEX_POINT('',#342);
#84=VERTEX_POINT('',#344);
#85=VERTEX_POINT('',#346);
#86=VERTEX_POINT('',#351);
#87=VERTEX_POINT('',#353);
#88=VERTEX_POINT('',#355);
#89=VERTEX_POINT('',#359);
#90=VERTEX_POINT('',#369);
#91=EDGE_CURVE('',#74,#74,#53,.T.);
#92=EDGE_CURVE('',#74,#75,#54,.T.);
#93=EDGE_CURVE('',#75,#76,#55,.T.);
#94=EDGE_CURVE('',#76,#75,#56,.T.);
#95=EDGE_CURVE('',#77,#78,#57,.T.);
#96=EDGE_CURVE('',#78,#79,#58,.T.);
#97=EDGE_CURVE('',#80,#79,#59,.T.);
#98=EDGE_CURVE('',#79,#80,#60,.T.);
#99=EDGE_CURVE('',#78,#81,#61,.T.);
#100=EDGE_CURVE('',#81,#77,#62,.T.);
#101=EDGE_CURVE('',#82,#83,#63,.T.);
#102=EDGE_CURVE('',#83,#84,#64,.T.);
#103=EDGE_CURVE('',#84,#85,#65,.T.);
#104=EDGE_CURVE('',#85,#84,#66,.T.);
#105=EDGE_CURVE('',#83,#82,#67,.T.);
#106=EDGE_CURVE('',#86,#86,#68,.T.);
#107=EDGE_CURVE('',#86,#87,#69,.T.);
#108=EDGE_CURVE('',#87,#88,#70,.T.);
#109=EDGE_CURVE('',#88,#87,#71,.T.);
#110=EDGE_CURVE('',#89,#89,#72,.T.);
#111=EDGE_CURVE('',#89,#76,#16,.T.);
#112=EDGE_CURVE('',#74,#77,#17,.T.);
#113=EDGE_CURVE('',#80,#85,#18,.T.);
#114=EDGE_CURVE('',#82,#86,#19,.T.);
#115=EDGE_CURVE('',#90,#90,#73,.T.);
#116=EDGE_CURVE('',#90,#88,#20,.T.);
#117=ORIENTED_EDGE('',*,*,#91,.T.);
#118=ORIENTED_EDGE('',*,*,#92,.T.);
#119=ORIENTED_EDGE('',*,*,#93,.T.);
#120=ORIENTED_EDGE('',*,*,#94,.T.);
#121=ORIENTED_EDGE('',*,*,#92,.F.);
#122=ORIENTED_EDGE('',*,*,#95,.T.);
#123=ORIENTED_EDGE('',*,*,#96,.T.);
#124=ORIENTED_EDGE('',*,*,#97,.F.);
#125=ORIENTED_EDGE('',*,*,#98,.F.);
#126=ORIENTED_EDGE('',*,*,#96,.F.);
#127=ORIENTED_EDGE('',*,*,#99,.T.);
#128=ORIENTED_EDGE('',*,*,#100,.T.);
#129=ORIENTED_EDGE('',*,*,#101,.T.);
#130=ORIENTED_EDGE('',*,*,#102,.T.);
#131=ORIENTED_EDGE('',*,*,#103,.T.);
#132=ORIENTED_EDGE('',*,*,#104,.T.);
#133=ORIENTED_EDGE('',*,*,#102,.F.);
#134=ORIENTED_EDGE('',*,*,#105,.T.);
#135=ORIENTED_EDGE('',*,*,#106,.T.);
#136=ORIENTED_EDGE('',*,*,#107,.T.);
#137=ORIENTED_EDGE('',*,*,#108,.T.);
#138=ORIENTED_EDGE('',*,*,#109,.T.);
#139=ORIENTED_EDGE('',*,*,#107,.F.);
#140=ORIENTED_EDGE('',*,*,#110,.F.);
#141=ORIENTED_EDGE('',*,*,#111,.T.);
#142=ORIENTED_EDGE('',*,*,#93,.F.);
#143=ORIENTED_EDGE('',*,*,#94,.F.);
#144=ORIENTED_EDGE('',*,*,#111,.F.);
#145=ORIENTED_EDGE('',*,*,#91,.F.);
#146=ORIENTED_EDGE('',*,*,#112,.T.);
#147=ORIENTED_EDGE('',*,*,#100,.F.);
#148=ORIENTED_EDGE('',*,*,#99,.F.);
#149=ORIENTED_EDGE('',*,*,#95,.F.);
#150=ORIENTED_EDGE('',*,*,#112,.F.);
#151=ORIENTED_EDGE('',*,*,#97,.T.);
#152=ORIENTED_EDGE('',*,*,#98,.T.);
#153=ORIENTED_EDGE('',*,*,#113,.T.);
#154=ORIENTED_EDGE('',*,*,#103,.F.);
#155=ORIENTED_EDGE('',*,*,#104,.F.);
#156=ORIENTED_EDGE('',*,*,#113,.F.);
#157=ORIENTED_EDGE('',*,*,#101,.F.);
#158=ORIENTED_EDGE('',*,*,#114,.T.);
#159=ORIENTED_EDGE('',*,*,#106,.F.);
#160=ORIENTED_EDGE('',*,*,#114,.F.);
#161=ORIENTED_EDGE('',*,*,#105,.F.);
#162=ORIENTED_EDGE('',*,*,#115,.F.);
#163=ORIENTED_EDGE('',*,*,#116,.T.);
#164=ORIENTED_EDGE('',*,*,#108,.F.);
#165=ORIENTED_EDGE('',*,*,#109,.F.);
#166=ORIENTED_EDGE('',*,*,#116,.F.);
#167=ORIENTED_EDGE('',*,*,#115,.T.);
#168=ORIENTED_EDGE('',*,*,#110,.T.);
#169=TOROIDAL_SURFACE('',#216,17.,5.);
#170=TOROIDAL_SURFACE('',#221,17.,5.);
#171=TOROIDAL_SURFACE('',#228,17.,5.);
#172=TOROIDAL_SURFACE('',#234,17.,5.);
#173=STYLED_ITEM('',(#395),#185);
#174=STYLED_ITEM('',(#395),#186);
#175=STYLED_ITEM('',(#395),#187);
#176=STYLED_ITEM('',(#395),#188);
#177=STYLED_ITEM('',(#395),#189);
#178=STYLED_ITEM('',(#395),#190);
#179=STYLED_ITEM('',(#395),#191);
#180=STYLED_ITEM('',(#395),#192);
#181=STYLED_ITEM('',(#395),#193);
#182=STYLED_ITEM('',(#395),#194);
#183=STYLED_ITEM('',(#395),#195);
#184=STYLED_ITEM('',(#394),#13);
#185=ADVANCED_FACE('',(#31),#169,.T.);
#186=ADVANCED_FACE('',(#32),#170,.T.);
#187=ADVANCED_FACE('',(#33),#171,.T.);
#188=ADVANCED_FACE('',(#34),#172,.T.);
#189=ADVANCED_FACE('',(#35),#26,.T.);
#190=ADVANCED_FACE('',(#36),#27,.T.);
#191=ADVANCED_FACE('',(#37),#28,.T.);
#192=ADVANCED_FACE('',(#38),#29,.T.);
#193=ADVANCED_FACE('',(#39),#30,.T.);
#194=ADVANCED_FACE('',(#40),#14,.T.);
#195=ADVANCED_FACE('',(#41),#15,.T.);
#196=CLOSED_SHELL('',(#185,#186,#187,#188,#189,#190,#191,#192,#193,#194,
#195));
#197=DERIVED_UNIT_ELEMENT(#199,1.);
#198=DERIVED_UNIT_ELEMENT(#379,3.);
#199=(
MASS_UNIT()
NAMED_UNIT(*)
SI_UNIT($,.GRAM.)
);
#200=DERIVED_UNIT((#197,#198));
#201=MEASURE_REPRESENTATION_ITEM('density measure',
POSITIVE_RATIO_MEASURE(2.7),#200);
#202=PROPERTY_DEFINITION_REPRESENTATION(#207,#204);
#203=PROPERTY_DEFINITION_REPRESENTATION(#208,#205);
#204=REPRESENTATION('material name',(#206),#376);
#205=REPRESENTATION('density',(#201),#376);
#206=DESCRIPTIVE_REPRESENTATION_ITEM('Aluminium 6061','Aluminium 6061');
#207=PROPERTY_DEFINITION('material property','material name',#386);
#208=PROPERTY_DEFINITION('material property','density of part',#386);
#209=DATE_TIME_ROLE('creation_date');
#210=APPLIED_DATE_AND_TIME_ASSIGNMENT(#211,#209,(#386));
#211=DATE_AND_TIME(#212,#213);
#212=CALENDAR_DATE(2019,7,6);
#213=LOCAL_TIME(15,40,14.,#214);
#214=COORDINATED_UNIVERSAL_TIME_OFFSET(0,0,.BEHIND.);
#215=AXIS2_PLACEMENT_3D('placement',#319,#248,#249);
#216=AXIS2_PLACEMENT_3D('',#320,#250,#251);
#217=AXIS2_PLACEMENT_3D('',#322,#252,#253);
#218=AXIS2_PLACEMENT_3D('',#324,#254,#255);
#219=AXIS2_PLACEMENT_3D('',#326,#256,#257);
#220=AXIS2_PLACEMENT_3D('',#327,#258,#259);
#221=AXIS2_PLACEMENT_3D('',#328,#260,#261);
#222=AXIS2_PLACEMENT_3D('',#331,#262,#263);
#223=AXIS2_PLACEMENT_3D('',#333,#264,#265);
#224=AXIS2_PLACEMENT_3D('',#335,#266,#267);
#225=AXIS2_PLACEMENT_3D('',#336,#268,#269);
#226=AXIS2_PLACEMENT_3D('',#338,#270,#271);
#227=AXIS2_PLACEMENT_3D('',#339,#272,#273);
#228=AXIS2_PLACEMENT_3D('',#340,#274,#275);
#229=AXIS2_PLACEMENT_3D('',#343,#276,#277);
#230=AXIS2_PLACEMENT_3D('',#345,#278,#279);
#231=AXIS2_PLACEMENT_3D('',#347,#280,#281);
#232=AXIS2_PLACEMENT_3D('',#348,#282,#283);
#233=AXIS2_PLACEMENT_3D('',#349,#284,#285);
#234=AXIS2_PLACEMENT_3D('',#350,#286,#287);
#235=AXIS2_PLACEMENT_3D('',#352,#288,#289);
#236=AXIS2_PLACEMENT_3D('',#354,#290,#291);
#237=AXIS2_PLACEMENT_3D('',#356,#292,#293);
#238=AXIS2_PLACEMENT_3D('',#357,#294,#295);
#239=AXIS2_PLACEMENT_3D('',#358,#296,#297);
#240=AXIS2_PLACEMENT_3D('',#360,#298,#299);
#241=AXIS2_PLACEMENT_3D('',#362,#301,#302);
#242=AXIS2_PLACEMENT_3D('',#364,#304,#305);
#243=AXIS2_PLACEMENT_3D('',#366,#307,#308);
#244=AXIS2_PLACEMENT_3D('',#368,#310,#311);
#245=AXIS2_PLACEMENT_3D('',#370,#312,#313);
#246=AXIS2_PLACEMENT_3D('',#372,#315,#316);
#247=AXIS2_PLACEMENT_3D('',#373,#317,#318);
#248=DIRECTION('axis',(0.,0.,1.));
#249=DIRECTION('refdir',(1.,0.,0.));
#250=DIRECTION('center_axis',(-1.,0.,0.));
#251=DIRECTION('ref_axis',(0.,0.,1.));
#252=DIRECTION('center_axis',(0.,-0.866025403784439,-0.5));
#253=DIRECTION('ref_axis',(-2.959254E-16,0.5,-0.866025403784439));
#254=DIRECTION('center_axis',(1.,0.,0.));
#255=DIRECTION('ref_axis',(0.,0.,1.));
#256=DIRECTION('center_axis',(0.,0.,1.));
#257=DIRECTION('ref_axis',(-1.,0.,0.));
#258=DIRECTION('center_axis',(0.,0.,1.));
#259=DIRECTION('ref_axis',(-1.,0.,0.));
#260=DIRECTION('center_axis',(0.,0.5,-0.866025403784439));
#261=DIRECTION('ref_axis',(-1.,0.,0.));
#262=DIRECTION('center_axis',(0.,0.866025403784438,0.500000000000001));
#263=DIRECTION('ref_axis',(0.,-0.500000000000001,0.866025403784438));
#264=DIRECTION('center_axis',(0.,-0.5,0.866025403784439));
#265=DIRECTION('ref_axis',(-1.,0.,0.));
#266=DIRECTION('center_axis',(-1.,0.,0.));
#267=DIRECTION('ref_axis',(0.,0.866025403784439,0.5));
#268=DIRECTION('center_axis',(-1.,0.,0.));
#269=DIRECTION('ref_axis',(0.,0.866025403784439,0.5));
#270=DIRECTION('center_axis',(0.,0.866025403784438,0.500000000000001));
#271=DIRECTION('ref_axis',(0.,-0.500000000000001,0.866025403784438));
#272=DIRECTION('center_axis',(0.,0.866025403784438,0.500000000000001));
#273=DIRECTION('ref_axis',(0.,-0.500000000000001,0.866025403784438));
#274=DIRECTION('center_axis',(0.,-0.5,0.866025403784439));
#275=DIRECTION('ref_axis',(1.,0.,0.));
#276=DIRECTION('center_axis',(0.,0.866025403784439,0.5));
#277=DIRECTION('ref_axis',(1.,0.,0.));
#278=DIRECTION('center_axis',(0.,0.5,-0.866025403784439));
#279=DIRECTION('ref_axis',(1.,0.,0.));
#280=DIRECTION('center_axis',(-1.,0.,0.));
#281=DIRECTION('ref_axis',(0.,0.,1.));
#282=DIRECTION('center_axis',(-1.,0.,0.));
#283=DIRECTION('ref_axis',(0.,0.,1.));
#284=DIRECTION('center_axis',(0.,0.866025403784439,0.5));
#285=DIRECTION('ref_axis',(1.,0.,0.));
#286=DIRECTION('center_axis',(-1.,0.,0.));
#287=DIRECTION('ref_axis',(0.,0.,1.));
#288=DIRECTION('center_axis',(0.,-0.866025403784438,-0.500000000000001));
#289=DIRECTION('ref_axis',(0.,-0.500000000000001,0.866025403784438));
#290=DIRECTION('center_axis',(1.,0.,0.));
#291=DIRECTION('ref_axis',(0.,0.,1.));
#292=DIRECTION('center_axis',(0.,0.,1.));
#293=DIRECTION('ref_axis',(0.,-1.,0.));
#294=DIRECTION('center_axis',(0.,0.,1.));
#295=DIRECTION('ref_axis',(0.,-1.,0.));
#296=DIRECTION('center_axis',(0.,0.,-1.));
#297=DIRECTION('ref_axis',(-1.,0.,0.));
#298=DIRECTION('center_axis',(0.,0.,-1.));
#299=DIRECTION('ref_axis',(-1.,0.,0.));
#300=DIRECTION('',(0.,0.,1.));
#301=DIRECTION('center_axis',(0.,-0.866025403784438,-0.500000000000001));
#302=DIRECTION('ref_axis',(0.,-0.500000000000001,0.866025403784438));
#303=DIRECTION('',(0.,0.866025403784438,0.500000000000001));
#304=DIRECTION('center_axis',(1.,0.,0.));
#305=DIRECTION('ref_axis',(0.,0.,1.));
#306=DIRECTION('',(-1.,0.,0.));
#307=DIRECTION('center_axis',(0.,0.866025403784438,0.500000000000001));
#308=DIRECTION('ref_axis',(0.,-0.500000000000001,0.866025403784438));
#309=DIRECTION('',(0.,-0.866025403784438,-0.500000000000001));
#310=DIRECTION('center_axis',(0.,0.,-1.));
#311=DIRECTION('ref_axis',(-1.,0.,0.));
#312=DIRECTION('center_axis',(0.,0.,-1.));
#313=DIRECTION('ref_axis',(-1.,0.,0.));
#314=DIRECTION('',(0.,0.,1.));
#315=DIRECTION('center_axis',(0.,0.,-1.));
#316=DIRECTION('ref_axis',(-1.,0.,0.));
#317=DIRECTION('center_axis',(0.,0.,-1.));
#318=DIRECTION('ref_axis',(-1.,0.,0.));
#319=CARTESIAN_POINT('',(0.,0.,0.));
#320=CARTESIAN_POINT('Origin',(120.,17.,7.9));
#321=CARTESIAN_POINT('',(120.,11.,18.2923048454133));
#322=CARTESIAN_POINT('Origin',(120.,8.5,22.6224318643355));
#323=CARTESIAN_POINT('',(120.,5.,7.9));
#324=CARTESIAN_POINT('Origin',(120.,17.,7.9));
#325=CARTESIAN_POINT('',(125.,-6.123032E-16,7.9));
#326=CARTESIAN_POINT('Origin',(120.,0.,7.9));
#327=CARTESIAN_POINT('Origin',(120.,0.,7.9));
#328=CARTESIAN_POINT('Origin',(103.,15.341601,26.572432));
#329=CARTESIAN_POINT('',(119.999999704326,17.8416006898971,22.2423049810778));
#330=CARTESIAN_POINT('',(115.,15.3416007674228,26.5724318657215));
#331=CARTESIAN_POINT('Origin',(120.,15.3416006898971,26.572432));
#332=CARTESIAN_POINT('',(103.,25.7339058454133,32.572432));
#333=CARTESIAN_POINT('Origin',(103.,15.341601,26.572432));
#334=CARTESIAN_POINT('',(103.,30.064033,30.072432));
#335=CARTESIAN_POINT('Origin',(103.,30.0640328643355,35.072432));
#336=CARTESIAN_POINT('Origin',(103.,30.0640328643355,35.072432));
#337=CARTESIAN_POINT('',(120.,12.8416006898971,30.9025590189222));
#338=CARTESIAN_POINT('Origin',(120.,15.3416006898971,26.572432));
#339=CARTESIAN_POINT('Origin',(120.,15.3416006898971,26.572432));
#340=CARTESIAN_POINT('Origin',(17.,15.341601,26.572432));
#341=CARTESIAN_POINT('',(-6.123032E-16,17.841601,22.2423049810778));
#342=CARTESIAN_POINT('',(5.,15.341601,26.572432));
#343=CARTESIAN_POINT('Origin',(0.,15.341601,26.572432));
#344=CARTESIAN_POINT('',(17.,25.7339059471617,32.5724320587445));
#345=CARTESIAN_POINT('Origin',(17.,15.341601,26.572432));
#346=CARTESIAN_POINT('',(17.,30.064033,30.072432));
#347=CARTESIAN_POINT('Origin',(17.,30.064033,35.072432));
#348=CARTESIAN_POINT('Origin',(17.,30.064033,35.072432));
#349=CARTESIAN_POINT('Origin',(0.,15.341601,26.572432));
#350=CARTESIAN_POINT('Origin',(-1.379376E-16,17.,7.90000000000002));
#351=CARTESIAN_POINT('',(-6.123032E-16,11.000000310103,18.2923049810778));
#352=CARTESIAN_POINT('Origin',(0.,8.50000031010295,22.622432));
#353=CARTESIAN_POINT('',(4.74385799573677E-16,5.00000000000001,7.90000000000002));
#354=CARTESIAN_POINT('Origin',(4.74385799573677E-16,17.,7.90000000000002));
#355=CARTESIAN_POINT('',(5.,-6.123032E-16,7.90000000000002));
#356=CARTESIAN_POINT('Origin',(-1.379376E-16,1.421085E-14,7.90000000000002));
#357=CARTESIAN_POINT('Origin',(-1.379376E-16,1.421085E-14,7.90000000000002));
#358=CARTESIAN_POINT('Origin',(120.,0.,3.95));
#359=CARTESIAN_POINT('',(125.,-6.123032E-16,0.));
#360=CARTESIAN_POINT('Origin',(120.,0.,0.));
#361=CARTESIAN_POINT('',(125.,-6.12323399573677E-16,3.95));
#362=CARTESIAN_POINT('Origin',(120.,11.9208003449485,24.597432));
#363=CARTESIAN_POINT('',(120.,14.4208003449485,20.2673049810778));
#364=CARTESIAN_POINT('Origin',(60.,30.064033,35.072432));
#365=CARTESIAN_POINT('',(60.,30.064033,30.072432));
#366=CARTESIAN_POINT('Origin',(0.,11.9208006550515,24.597432));
#367=CARTESIAN_POINT('',(-6.12323399573677E-16,14.4208006550515,20.2673049810778));
#368=CARTESIAN_POINT('Origin',(0.,0.,3.95));
#369=CARTESIAN_POINT('',(5.,-6.123032E-16,0.));
#370=CARTESIAN_POINT('Origin',(0.,0.,0.));
#371=CARTESIAN_POINT('',(5.,-6.12323399573677E-16,3.95));
#372=CARTESIAN_POINT('Origin',(0.,0.,0.));
#373=CARTESIAN_POINT('Origin',(120.,0.,0.));
#374=UNCERTAINTY_MEASURE_WITH_UNIT(LENGTH_MEASURE(0.01),#378,
'DISTANCE_ACCURACY_VALUE',
'Maximum model space distance between geometric entities at asserted c
onnectivities');
#375=UNCERTAINTY_MEASURE_WITH_UNIT(LENGTH_MEASURE(0.01),#378,
'DISTANCE_ACCURACY_VALUE',
'Maximum model space distance between geometric entities at asserted c
onnectivities');
#376=(
GEOMETRIC_REPRESENTATION_CONTEXT(3)
GLOBAL_UNCERTAINTY_ASSIGNED_CONTEXT((#374))
GLOBAL_UNIT_ASSIGNED_CONTEXT((#378,#381,#380))
REPRESENTATION_CONTEXT('','3D')
);
#377=(
GEOMETRIC_REPRESENTATION_CONTEXT(3)
GLOBAL_UNCERTAINTY_ASSIGNED_CONTEXT((#375))
GLOBAL_UNIT_ASSIGNED_CONTEXT((#378,#381,#380))
REPRESENTATION_CONTEXT('','3D')
);
#378=(
LENGTH_UNIT()
NAMED_UNIT(*)
SI_UNIT(.MILLI.,.METRE.)
);
#379=(
LENGTH_UNIT()
NAMED_UNIT(*)
SI_UNIT(.CENTI.,.METRE.)
);
#380=(
NAMED_UNIT(*)
SI_UNIT($,.STERADIAN.)
SOLID_ANGLE_UNIT()
);
#381=(
NAMED_UNIT(*)
PLANE_ANGLE_UNIT()
SI_UNIT($,.RADIAN.)
);
#382=SHAPE_DEFINITION_REPRESENTATION(#383,#384);
#383=PRODUCT_DEFINITION_SHAPE('',$,#386);
#384=SHAPE_REPRESENTATION('',(#215),#376);
#385=PRODUCT_DEFINITION_CONTEXT('part definition',#390,'design');
#386=PRODUCT_DEFINITION('ZI-1595_Handgriff_ALU_120_gebogen-8',
'ZI-1595_Handgriff_ALU_120_gebogen-8',#387,#385);
#387=PRODUCT_DEFINITION_FORMATION('',$,#392);
#388=PRODUCT_RELATED_PRODUCT_CATEGORY(
'ZI-1595_Handgriff_ALU_120_gebogen-8',
'ZI-1595_Handgriff_ALU_120_gebogen-8',(#392));
#389=APPLICATION_PROTOCOL_DEFINITION('international standard',
'automotive_design',2009,#390);
#390=APPLICATION_CONTEXT(
'Core Data for Automotive Mechanical Design Process');
#391=PRODUCT_CONTEXT('part definition',#390,'mechanical');
#392=PRODUCT('ZI-1595_Handgriff_ALU_120_gebogen-8',
'ZI-1595_Handgriff_ALU_120_gebogen-8',$,(#391));
#393=PRESENTATION_STYLE_ASSIGNMENT((#396));
#394=PRESENTATION_STYLE_ASSIGNMENT((#397));
#395=PRESENTATION_STYLE_ASSIGNMENT((#398));
#396=SURFACE_STYLE_USAGE(.BOTH.,#399);
#397=SURFACE_STYLE_USAGE(.BOTH.,#400);
#398=SURFACE_STYLE_USAGE(.BOTH.,#401);
#399=SURFACE_SIDE_STYLE('',(#402));
#400=SURFACE_SIDE_STYLE('',(#403));
#401=SURFACE_SIDE_STYLE('',(#404));
#402=SURFACE_STYLE_FILL_AREA(#405);
#403=SURFACE_STYLE_FILL_AREA(#406);
#404=SURFACE_STYLE_FILL_AREA(#407);
#405=FILL_AREA_STYLE('',(#408));
#406=FILL_AREA_STYLE('',(#409));
#407=FILL_AREA_STYLE('',(#410));
#408=FILL_AREA_STYLE_COLOUR('',#411);
#409=FILL_AREA_STYLE_COLOUR('',#412);
#410=FILL_AREA_STYLE_COLOUR('',#413);
#411=COLOUR_RGB('',0.996078431372549,0.996078431372549,1.);
#412=COLOUR_RGB('',0.32156862745098,0.32156862745098,0.32156862745098);
#413=COLOUR_RGB('',0.250980392156863,0.250980392156863,0.250980392156863);
ENDSEC;
END-ISO-10303-21;
