ISO-10303-21;
HEADER;
/* Generated by software containing ST-Developer
 * from STEP Tools, Inc. (www.steptools.com) 
 */

FILE_DESCRIPTION(
/* description */ (''),
/* implementation_level */ '2;1');

FILE_NAME(
/* name */ 
'M:\\Inventor Vorlage\\1_I-Baukasten\\1_Profile\\I-Baukasten_P\\I-Bauk
asten Inhaltscenter\\Step Ableitung\\PI-1445_Scharnierlappenprofil lei
cht _e-8.stp',
/* time_stamp */ '2020-01-21T14:52:34+01:00',
/* author */ ('jmaun'),
/* organization */ (''),
/* preprocessor_version */ 'ST-DEVELOPER v17',
/* originating_system */ 'Autodesk Inventor 2019',
/* authorisation */ '');

FILE_SCHEMA (('AUTOMOTIVE_DESIGN { 1 0 10303 214 3 1 1 }'));
ENDSEC;

DATA;
#10=MECHANICAL_DESIGN_GEOMETRIC_PRESENTATION_REPRESENTATION('',(#13),#436);
#11=SHAPE_REPRESENTATION_RELATIONSHIP('SRR','None',#443,#12);
#12=ADVANCED_BREP_SHAPE_REPRESENTATION('',(#14),#435);
#13=STYLED_ITEM('',(#452),#14);
#14=MANIFOLD_SOLID_BREP('Volumenk\X\F6rper1',#246);
#15=FACE_BOUND('',#49,.T.);
#16=FACE_BOUND('',#51,.T.);
#17=PLANE('',#269);
#18=PLANE('',#273);
#19=PLANE('',#277);
#20=PLANE('',#281);
#21=PLANE('',#285);
#22=PLANE('',#289);
#23=PLANE('',#290);
#24=FACE_OUTER_BOUND('',#37,.T.);
#25=FACE_OUTER_BOUND('',#38,.T.);
#26=FACE_OUTER_BOUND('',#39,.T.);
#27=FACE_OUTER_BOUND('',#40,.T.);
#28=FACE_OUTER_BOUND('',#41,.T.);
#29=FACE_OUTER_BOUND('',#42,.T.);
#30=FACE_OUTER_BOUND('',#43,.T.);
#31=FACE_OUTER_BOUND('',#44,.T.);
#32=FACE_OUTER_BOUND('',#45,.T.);
#33=FACE_OUTER_BOUND('',#46,.T.);
#34=FACE_OUTER_BOUND('',#47,.T.);
#35=FACE_OUTER_BOUND('',#48,.T.);
#36=FACE_OUTER_BOUND('',#50,.T.);
#37=EDGE_LOOP('',(#161,#162,#163,#164));
#38=EDGE_LOOP('',(#165,#166,#167,#168));
#39=EDGE_LOOP('',(#169,#170,#171,#172));
#40=EDGE_LOOP('',(#173,#174,#175,#176));
#41=EDGE_LOOP('',(#177,#178,#179,#180));
#42=EDGE_LOOP('',(#181,#182,#183,#184));
#43=EDGE_LOOP('',(#185,#186,#187,#188));
#44=EDGE_LOOP('',(#189,#190,#191,#192));
#45=EDGE_LOOP('',(#193,#194,#195,#196));
#46=EDGE_LOOP('',(#197,#198,#199,#200));
#47=EDGE_LOOP('',(#201,#202,#203,#204));
#48=EDGE_LOOP('',(#205,#206,#207,#208,#209,#210,#211,#212,#213,#214));
#49=EDGE_LOOP('',(#215));
#50=EDGE_LOOP('',(#216,#217,#218,#219,#220,#221,#222,#223,#224,#225));
#51=EDGE_LOOP('',(#226));
#52=LINE('',#369,#73);
#53=LINE('',#374,#74);
#54=LINE('',#376,#75);
#55=LINE('',#378,#76);
#56=LINE('',#379,#77);
#57=LINE('',#385,#78);
#58=LINE('',#388,#79);
#59=LINE('',#390,#80);
#60=LINE('',#391,#81);
#61=LINE('',#397,#82);
#62=LINE('',#400,#83);
#63=LINE('',#402,#84);
#64=LINE('',#403,#85);
#65=LINE('',#409,#86);
#66=LINE('',#412,#87);
#67=LINE('',#414,#88);
#68=LINE('',#415,#89);
#69=LINE('',#421,#90);
#70=LINE('',#424,#91);
#71=LINE('',#426,#92);
#72=LINE('',#427,#93);
#73=VECTOR('',#297,4.);
#74=VECTOR('',#302,10.);
#75=VECTOR('',#303,10.);
#76=VECTOR('',#304,10.);
#77=VECTOR('',#305,10.);
#78=VECTOR('',#312,10.);
#79=VECTOR('',#315,10.);
#80=VECTOR('',#316,10.);
#81=VECTOR('',#317,10.);
#82=VECTOR('',#324,10.);
#83=VECTOR('',#327,10.);
#84=VECTOR('',#328,10.);
#85=VECTOR('',#329,10.);
#86=VECTOR('',#336,10.);
#87=VECTOR('',#339,10.);
#88=VECTOR('',#340,10.);
#89=VECTOR('',#341,10.);
#90=VECTOR('',#348,10.);
#91=VECTOR('',#351,10.);
#92=VECTOR('',#352,10.);
#93=VECTOR('',#353,10.);
#94=CIRCLE('',#267,4.);
#95=CIRCLE('',#268,4.);
#96=CIRCLE('',#271,0.999999999999999);
#97=CIRCLE('',#272,0.999999999999999);
#98=CIRCLE('',#275,1.00000000000001);
#99=CIRCLE('',#276,1.00000000000001);
#100=CIRCLE('',#279,1.);
#101=CIRCLE('',#280,1.);
#102=CIRCLE('',#283,7.);
#103=CIRCLE('',#284,7.);
#104=CIRCLE('',#287,0.999999997438727);
#105=CIRCLE('',#288,0.999999997438727);
#106=VERTEX_POINT('',#366);
#107=VERTEX_POINT('',#368);
#108=VERTEX_POINT('',#372);
#109=VERTEX_POINT('',#373);
#110=VERTEX_POINT('',#375);
#111=VERTEX_POINT('',#377);
#112=VERTEX_POINT('',#381);
#113=VERTEX_POINT('',#383);
#114=VERTEX_POINT('',#387);
#115=VERTEX_POINT('',#389);
#116=VERTEX_POINT('',#393);
#117=VERTEX_POINT('',#395);
#118=VERTEX_POINT('',#399);
#119=VERTEX_POINT('',#401);
#120=VERTEX_POINT('',#405);
#121=VERTEX_POINT('',#407);
#122=VERTEX_POINT('',#411);
#123=VERTEX_POINT('',#413);
#124=VERTEX_POINT('',#417);
#125=VERTEX_POINT('',#419);
#126=VERTEX_POINT('',#423);
#127=VERTEX_POINT('',#425);
#128=EDGE_CURVE('',#106,#106,#94,.T.);
#129=EDGE_CURVE('',#106,#107,#52,.T.);
#130=EDGE_CURVE('',#107,#107,#95,.T.);
#131=EDGE_CURVE('',#108,#109,#53,.T.);
#132=EDGE_CURVE('',#109,#110,#54,.T.);
#133=EDGE_CURVE('',#111,#110,#55,.T.);
#134=EDGE_CURVE('',#108,#111,#56,.T.);
#135=EDGE_CURVE('',#112,#108,#96,.T.);
#136=EDGE_CURVE('',#113,#111,#97,.T.);
#137=EDGE_CURVE('',#112,#113,#57,.T.);
#138=EDGE_CURVE('',#114,#112,#58,.T.);
#139=EDGE_CURVE('',#115,#113,#59,.T.);
#140=EDGE_CURVE('',#114,#115,#60,.T.);
#141=EDGE_CURVE('',#116,#114,#98,.T.);
#142=EDGE_CURVE('',#117,#115,#99,.T.);
#143=EDGE_CURVE('',#116,#117,#61,.T.);
#144=EDGE_CURVE('',#118,#116,#62,.T.);
#145=EDGE_CURVE('',#119,#117,#63,.T.);
#146=EDGE_CURVE('',#118,#119,#64,.T.);
#147=EDGE_CURVE('',#120,#118,#100,.T.);
#148=EDGE_CURVE('',#121,#119,#101,.T.);
#149=EDGE_CURVE('',#120,#121,#65,.T.);
#150=EDGE_CURVE('',#122,#120,#66,.T.);
#151=EDGE_CURVE('',#123,#121,#67,.T.);
#152=EDGE_CURVE('',#122,#123,#68,.T.);
#153=EDGE_CURVE('',#124,#122,#102,.T.);
#154=EDGE_CURVE('',#125,#123,#103,.T.);
#155=EDGE_CURVE('',#124,#125,#69,.T.);
#156=EDGE_CURVE('',#126,#124,#70,.T.);
#157=EDGE_CURVE('',#127,#125,#71,.T.);
#158=EDGE_CURVE('',#126,#127,#72,.T.);
#159=EDGE_CURVE('',#109,#126,#104,.T.);
#160=EDGE_CURVE('',#110,#127,#105,.T.);
#161=ORIENTED_EDGE('',*,*,#128,.F.);
#162=ORIENTED_EDGE('',*,*,#129,.T.);
#163=ORIENTED_EDGE('',*,*,#130,.F.);
#164=ORIENTED_EDGE('',*,*,#129,.F.);
#165=ORIENTED_EDGE('',*,*,#131,.T.);
#166=ORIENTED_EDGE('',*,*,#132,.T.);
#167=ORIENTED_EDGE('',*,*,#133,.F.);
#168=ORIENTED_EDGE('',*,*,#134,.F.);
#169=ORIENTED_EDGE('',*,*,#135,.T.);
#170=ORIENTED_EDGE('',*,*,#134,.T.);
#171=ORIENTED_EDGE('',*,*,#136,.F.);
#172=ORIENTED_EDGE('',*,*,#137,.F.);
#173=ORIENTED_EDGE('',*,*,#138,.T.);
#174=ORIENTED_EDGE('',*,*,#137,.T.);
#175=ORIENTED_EDGE('',*,*,#139,.F.);
#176=ORIENTED_EDGE('',*,*,#140,.F.);
#177=ORIENTED_EDGE('',*,*,#141,.T.);
#178=ORIENTED_EDGE('',*,*,#140,.T.);
#179=ORIENTED_EDGE('',*,*,#142,.F.);
#180=ORIENTED_EDGE('',*,*,#143,.F.);
#181=ORIENTED_EDGE('',*,*,#144,.T.);
#182=ORIENTED_EDGE('',*,*,#143,.T.);
#183=ORIENTED_EDGE('',*,*,#145,.F.);
#184=ORIENTED_EDGE('',*,*,#146,.F.);
#185=ORIENTED_EDGE('',*,*,#147,.T.);
#186=ORIENTED_EDGE('',*,*,#146,.T.);
#187=ORIENTED_EDGE('',*,*,#148,.F.);
#188=ORIENTED_EDGE('',*,*,#149,.F.);
#189=ORIENTED_EDGE('',*,*,#150,.T.);
#190=ORIENTED_EDGE('',*,*,#149,.T.);
#191=ORIENTED_EDGE('',*,*,#151,.F.);
#192=ORIENTED_EDGE('',*,*,#152,.F.);
#193=ORIENTED_EDGE('',*,*,#153,.T.);
#194=ORIENTED_EDGE('',*,*,#152,.T.);
#195=ORIENTED_EDGE('',*,*,#154,.F.);
#196=ORIENTED_EDGE('',*,*,#155,.F.);
#197=ORIENTED_EDGE('',*,*,#156,.T.);
#198=ORIENTED_EDGE('',*,*,#155,.T.);
#199=ORIENTED_EDGE('',*,*,#157,.F.);
#200=ORIENTED_EDGE('',*,*,#158,.F.);
#201=ORIENTED_EDGE('',*,*,#159,.T.);
#202=ORIENTED_EDGE('',*,*,#158,.T.);
#203=ORIENTED_EDGE('',*,*,#160,.F.);
#204=ORIENTED_EDGE('',*,*,#132,.F.);
#205=ORIENTED_EDGE('',*,*,#160,.T.);
#206=ORIENTED_EDGE('',*,*,#157,.T.);
#207=ORIENTED_EDGE('',*,*,#154,.T.);
#208=ORIENTED_EDGE('',*,*,#151,.T.);
#209=ORIENTED_EDGE('',*,*,#148,.T.);
#210=ORIENTED_EDGE('',*,*,#145,.T.);
#211=ORIENTED_EDGE('',*,*,#142,.T.);
#212=ORIENTED_EDGE('',*,*,#139,.T.);
#213=ORIENTED_EDGE('',*,*,#136,.T.);
#214=ORIENTED_EDGE('',*,*,#133,.T.);
#215=ORIENTED_EDGE('',*,*,#130,.T.);
#216=ORIENTED_EDGE('',*,*,#159,.F.);
#217=ORIENTED_EDGE('',*,*,#131,.F.);
#218=ORIENTED_EDGE('',*,*,#135,.F.);
#219=ORIENTED_EDGE('',*,*,#138,.F.);
#220=ORIENTED_EDGE('',*,*,#141,.F.);
#221=ORIENTED_EDGE('',*,*,#144,.F.);
#222=ORIENTED_EDGE('',*,*,#147,.F.);
#223=ORIENTED_EDGE('',*,*,#150,.F.);
#224=ORIENTED_EDGE('',*,*,#153,.F.);
#225=ORIENTED_EDGE('',*,*,#156,.F.);
#226=ORIENTED_EDGE('',*,*,#128,.T.);
#227=CYLINDRICAL_SURFACE('',#266,4.);
#228=CYLINDRICAL_SURFACE('',#270,0.999999999999999);
#229=CYLINDRICAL_SURFACE('',#274,1.00000000000001);
#230=CYLINDRICAL_SURFACE('',#278,1.);
#231=CYLINDRICAL_SURFACE('',#282,7.);
#232=CYLINDRICAL_SURFACE('',#286,0.999999997438727);
#233=ADVANCED_FACE('',(#24),#227,.F.);
#234=ADVANCED_FACE('',(#25),#17,.T.);
#235=ADVANCED_FACE('',(#26),#228,.T.);
#236=ADVANCED_FACE('',(#27),#18,.T.);
#237=ADVANCED_FACE('',(#28),#229,.T.);
#238=ADVANCED_FACE('',(#29),#19,.T.);
#239=ADVANCED_FACE('',(#30),#230,.F.);
#240=ADVANCED_FACE('',(#31),#20,.T.);
#241=ADVANCED_FACE('',(#32),#231,.T.);
#242=ADVANCED_FACE('',(#33),#21,.T.);
#243=ADVANCED_FACE('',(#34),#232,.T.);
#244=ADVANCED_FACE('',(#35,#15),#22,.T.);
#245=ADVANCED_FACE('',(#36,#16),#23,.F.);
#246=CLOSED_SHELL('',(#233,#234,#235,#236,#237,#238,#239,#240,#241,#242,
#243,#244,#245));
#247=DERIVED_UNIT_ELEMENT(#249,1.);
#248=DERIVED_UNIT_ELEMENT(#438,3.);
#249=(
MASS_UNIT()
NAMED_UNIT(*)
SI_UNIT($,.GRAM.)
);
#250=DERIVED_UNIT((#247,#248));
#251=MEASURE_REPRESENTATION_ITEM('density measure',
POSITIVE_RATIO_MEASURE(1.),#250);
#252=PROPERTY_DEFINITION_REPRESENTATION(#257,#254);
#253=PROPERTY_DEFINITION_REPRESENTATION(#258,#255);
#254=REPRESENTATION('material name',(#256),#435);
#255=REPRESENTATION('density',(#251),#435);
#256=DESCRIPTIVE_REPRESENTATION_ITEM('Generisch','Generisch');
#257=PROPERTY_DEFINITION('material property','material name',#445);
#258=PROPERTY_DEFINITION('material property','density of part',#445);
#259=DATE_TIME_ROLE('creation_date');
#260=APPLIED_DATE_AND_TIME_ASSIGNMENT(#261,#259,(#445));
#261=DATE_AND_TIME(#262,#263);
#262=CALENDAR_DATE(2019,18,4);
#263=LOCAL_TIME(15,29,24.,#264);
#264=COORDINATED_UNIVERSAL_TIME_OFFSET(0,0,.BEHIND.);
#265=AXIS2_PLACEMENT_3D('placement',#364,#291,#292);
#266=AXIS2_PLACEMENT_3D('',#365,#293,#294);
#267=AXIS2_PLACEMENT_3D('',#367,#295,#296);
#268=AXIS2_PLACEMENT_3D('',#370,#298,#299);
#269=AXIS2_PLACEMENT_3D('',#371,#300,#301);
#270=AXIS2_PLACEMENT_3D('',#380,#306,#307);
#271=AXIS2_PLACEMENT_3D('',#382,#308,#309);
#272=AXIS2_PLACEMENT_3D('',#384,#310,#311);
#273=AXIS2_PLACEMENT_3D('',#386,#313,#314);
#274=AXIS2_PLACEMENT_3D('',#392,#318,#319);
#275=AXIS2_PLACEMENT_3D('',#394,#320,#321);
#276=AXIS2_PLACEMENT_3D('',#396,#322,#323);
#277=AXIS2_PLACEMENT_3D('',#398,#325,#326);
#278=AXIS2_PLACEMENT_3D('',#404,#330,#331);
#279=AXIS2_PLACEMENT_3D('',#406,#332,#333);
#280=AXIS2_PLACEMENT_3D('',#408,#334,#335);
#281=AXIS2_PLACEMENT_3D('',#410,#337,#338);
#282=AXIS2_PLACEMENT_3D('',#416,#342,#343);
#283=AXIS2_PLACEMENT_3D('',#418,#344,#345);
#284=AXIS2_PLACEMENT_3D('',#420,#346,#347);
#285=AXIS2_PLACEMENT_3D('',#422,#349,#350);
#286=AXIS2_PLACEMENT_3D('',#428,#354,#355);
#287=AXIS2_PLACEMENT_3D('',#429,#356,#357);
#288=AXIS2_PLACEMENT_3D('',#430,#358,#359);
#289=AXIS2_PLACEMENT_3D('',#431,#360,#361);
#290=AXIS2_PLACEMENT_3D('',#432,#362,#363);
#291=DIRECTION('axis',(0.,0.,1.));
#292=DIRECTION('refdir',(1.,0.,0.));
#293=DIRECTION('center_axis',(0.,0.,1.));
#294=DIRECTION('ref_axis',(-1.,0.,0.));
#295=DIRECTION('center_axis',(0.,0.,1.));
#296=DIRECTION('ref_axis',(-1.,0.,0.));
#297=DIRECTION('',(0.,0.,1.));
#298=DIRECTION('center_axis',(0.,0.,-1.));
#299=DIRECTION('ref_axis',(-1.,0.,0.));
#300=DIRECTION('center_axis',(0.,1.,0.));
#301=DIRECTION('ref_axis',(-1.,0.,0.));
#302=DIRECTION('',(-1.,0.,0.));
#303=DIRECTION('',(0.,0.,1.));
#304=DIRECTION('',(-1.,0.,0.));
#305=DIRECTION('',(0.,0.,1.));
#306=DIRECTION('center_axis',(0.,0.,1.));
#307=DIRECTION('ref_axis',(1.,-1.75795600299012E-9,0.));
#308=DIRECTION('center_axis',(0.,0.,1.));
#309=DIRECTION('ref_axis',(1.,-1.75795600299012E-9,0.));
#310=DIRECTION('center_axis',(0.,0.,1.));
#311=DIRECTION('ref_axis',(1.,-1.75795600299012E-9,0.));
#312=DIRECTION('',(0.,0.,1.));
#313=DIRECTION('center_axis',(1.,-7.78784444340392E-11,0.));
#314=DIRECTION('ref_axis',(7.78784444340392E-11,1.,0.));
#315=DIRECTION('',(7.78784444340392E-11,1.,0.));
#316=DIRECTION('',(7.78784444340392E-11,1.,0.));
#317=DIRECTION('',(0.,0.,1.));
#318=DIRECTION('center_axis',(0.,0.,1.));
#319=DIRECTION('ref_axis',(-7.78666020551089E-11,-1.,0.));
#320=DIRECTION('center_axis',(0.,0.,1.));
#321=DIRECTION('ref_axis',(-7.78666020551089E-11,-1.,0.));
#322=DIRECTION('center_axis',(0.,0.,1.));
#323=DIRECTION('ref_axis',(-7.78666020551089E-11,-1.,0.));
#324=DIRECTION('',(0.,0.,1.));
#325=DIRECTION('center_axis',(-7.7876900190004E-11,-1.,0.));
#326=DIRECTION('ref_axis',(1.,-7.7876900190004E-11,0.));
#327=DIRECTION('',(1.,-7.7876900190004E-11,0.));
#328=DIRECTION('',(1.,-7.7876900190004E-11,0.));
#329=DIRECTION('',(0.,0.,1.));
#330=DIRECTION('center_axis',(0.,0.,1.));
#331=DIRECTION('ref_axis',(-7.78777042853561E-11,-1.,0.));
#332=DIRECTION('center_axis',(0.,0.,-1.));
#333=DIRECTION('ref_axis',(-7.78777042853561E-11,-1.,0.));
#334=DIRECTION('center_axis',(0.,0.,-1.));
#335=DIRECTION('ref_axis',(-7.78777042853561E-11,-1.,0.));
#336=DIRECTION('',(0.,0.,1.));
#337=DIRECTION('center_axis',(1.,-7.7876799659188E-11,0.));
#338=DIRECTION('ref_axis',(7.7876799659188E-11,1.,0.));
#339=DIRECTION('',(7.7876799659188E-11,1.,0.));
#340=DIRECTION('',(7.7876799659188E-11,1.,0.));
#341=DIRECTION('',(0.,0.,1.));
#342=DIRECTION('center_axis',(0.,0.,1.));
#343=DIRECTION('ref_axis',(-0.642787609933565,-0.766044442911699,0.));
#344=DIRECTION('center_axis',(0.,0.,1.));
#345=DIRECTION('ref_axis',(-0.173648177108485,0.984807753110677,0.));
#346=DIRECTION('center_axis',(0.,0.,1.));
#347=DIRECTION('ref_axis',(-0.173648177108485,0.984807753110677,0.));
#348=DIRECTION('',(0.,0.,1.));
#349=DIRECTION('center_axis',(-0.17364817727516,0.984807753081288,0.));
#350=DIRECTION('ref_axis',(-0.984807753081288,-0.17364817727516,0.));
#351=DIRECTION('',(-0.984807753081288,-0.17364817727516,0.));
#352=DIRECTION('',(-0.984807753081288,-0.17364817727516,0.));
#353=DIRECTION('',(0.,0.,1.));
#354=DIRECTION('center_axis',(0.,0.,1.));
#355=DIRECTION('ref_axis',(7.78746513714967E-11,1.,0.));
#356=DIRECTION('center_axis',(0.,0.,1.));
#357=DIRECTION('ref_axis',(7.78746513714967E-11,1.,0.));
#358=DIRECTION('center_axis',(0.,0.,1.));
#359=DIRECTION('ref_axis',(7.78746513714967E-11,1.,0.));
#360=DIRECTION('center_axis',(0.,0.,1.));
#361=DIRECTION('ref_axis',(1.,0.,0.));
#362=DIRECTION('center_axis',(0.,0.,1.));
#363=DIRECTION('ref_axis',(1.,0.,0.));
#364=CARTESIAN_POINT('',(0.,0.,0.));
#365=CARTESIAN_POINT('Origin',(-0.173648180297431,-0.0151922457450859,0.));
#366=CARTESIAN_POINT('',(3.82635181970257,-0.0151922457450854,0.));
#367=CARTESIAN_POINT('Origin',(-0.173648180297431,-0.0151922457450859,0.));
#368=CARTESIAN_POINT('',(3.82635181970257,-0.0151922457450854,100.));
#369=CARTESIAN_POINT('',(3.82635181970257,-0.0151922457450854,0.));
#370=CARTESIAN_POINT('Origin',(-0.173648180297431,-0.0151922457450859,100.));
#371=CARTESIAN_POINT('Origin',(35.0263518202866,7.48480775151365,0.));
#372=CARTESIAN_POINT('',(35.0263518202866,7.48480775151365,0.));
#373=CARTESIAN_POINT('',(2.13706075028665,7.48480775151365,0.));
#374=CARTESIAN_POINT('',(35.0263518202866,7.48480775151365,0.));
#375=CARTESIAN_POINT('',(2.13706075028665,7.48480775151365,100.));
#376=CARTESIAN_POINT('',(2.13706075028665,7.48480775151365,0.));
#377=CARTESIAN_POINT('',(35.0263518202866,7.48480775151365,100.));
#378=CARTESIAN_POINT('',(35.0263518202866,7.48480775151365,100.));
#379=CARTESIAN_POINT('',(35.0263518202866,7.48480775151365,0.));
#380=CARTESIAN_POINT('Origin',(35.026351820505,6.48480775151365,0.));
#381=CARTESIAN_POINT('',(36.026351820505,6.4848077497557,0.));
#382=CARTESIAN_POINT('Origin',(35.026351820505,6.48480775151365,0.));
#383=CARTESIAN_POINT('',(36.026351820505,6.4848077497557,100.));
#384=CARTESIAN_POINT('Origin',(35.026351820505,6.48480775151365,100.));
#385=CARTESIAN_POINT('',(36.026351820505,6.4848077497557,0.));
#386=CARTESIAN_POINT('Origin',(36.0263518203648,4.68480774975569,0.));
#387=CARTESIAN_POINT('',(36.0263518203648,4.68480774975569,0.));
#388=CARTESIAN_POINT('',(36.0263518203648,4.68480774975569,0.));
#389=CARTESIAN_POINT('',(36.0263518203648,4.68480774975569,100.));
#390=CARTESIAN_POINT('',(36.0263518203648,4.68480774975569,100.));
#391=CARTESIAN_POINT('',(36.0263518203648,4.68480774975569,0.));
#392=CARTESIAN_POINT('Origin',(35.0263518203648,4.68480774983358,0.));
#393=CARTESIAN_POINT('',(35.0263518202869,3.68480774983357,0.));
#394=CARTESIAN_POINT('Origin',(35.0263518203648,4.68480774983358,0.));
#395=CARTESIAN_POINT('',(35.0263518202869,3.68480774983357,100.));
#396=CARTESIAN_POINT('Origin',(35.0263518203648,4.68480774983358,100.));
#397=CARTESIAN_POINT('',(35.0263518202869,3.68480774983357,0.));
#398=CARTESIAN_POINT('Origin',(7.82635182028697,3.68480775195182,0.));
#399=CARTESIAN_POINT('',(7.82635182028697,3.68480775195182,0.));
#400=CARTESIAN_POINT('',(7.82635182028697,3.68480775195182,0.));
#401=CARTESIAN_POINT('',(7.82635182028697,3.68480775195182,100.));
#402=CARTESIAN_POINT('',(7.82635182028697,3.68480775195182,100.));
#403=CARTESIAN_POINT('',(7.82635182028697,3.68480775195182,0.));
#404=CARTESIAN_POINT('Origin',(7.82635182020909,2.68480775195182,0.));
#405=CARTESIAN_POINT('',(6.82635182020909,2.6848077520297,0.));
#406=CARTESIAN_POINT('Origin',(7.82635182020909,2.68480775195182,0.));
#407=CARTESIAN_POINT('',(6.82635182020909,2.6848077520297,100.));
#408=CARTESIAN_POINT('Origin',(7.82635182020909,2.68480775195182,100.));
#409=CARTESIAN_POINT('',(6.82635182020909,2.6848077520297,0.));
#410=CARTESIAN_POINT('Origin',(6.82635181999882,-0.0151922479703026,0.));
#411=CARTESIAN_POINT('',(6.82635181999882,-0.0151922479703026,0.));
#412=CARTESIAN_POINT('',(6.82635181999882,-0.0151922479703026,0.));
#413=CARTESIAN_POINT('',(6.82635181999882,-0.0151922479703026,100.));
#414=CARTESIAN_POINT('',(6.82635181999882,-0.0151922479703026,100.));
#415=CARTESIAN_POINT('',(6.82635181999882,-0.0151922479703026,0.));
#416=CARTESIAN_POINT('Origin',(-0.173648180001177,-0.015192247425162,0.));
#417=CARTESIAN_POINT('',(-1.38918541976058,6.87846202434958,0.));
#418=CARTESIAN_POINT('Origin',(-0.173648180001177,-0.015192247425162,0.));
#419=CARTESIAN_POINT('',(-1.38918541976058,6.87846202434958,100.));
#420=CARTESIAN_POINT('Origin',(-0.173648180001177,-0.015192247425162,100.));
#421=CARTESIAN_POINT('',(-1.38918541976058,6.87846202434958,0.));
#422=CARTESIAN_POINT('Origin',(1.96341257028546,7.46961550408849,0.));
#423=CARTESIAN_POINT('',(1.96341257028546,7.46961550408849,0.));
#424=CARTESIAN_POINT('',(1.96341257028546,7.46961550408849,0.));
#425=CARTESIAN_POINT('',(1.96341257028546,7.46961550408849,100.));
#426=CARTESIAN_POINT('',(1.96341257028546,7.46961550408849,100.));
#427=CARTESIAN_POINT('',(1.96341257028546,7.46961550408849,0.));
#428=CARTESIAN_POINT('Origin',(2.13706075020877,6.48480775407492,0.));
#429=CARTESIAN_POINT('Origin',(2.13706075020877,6.48480775407492,0.));
#430=CARTESIAN_POINT('Origin',(2.13706075020877,6.48480775407492,100.));
#431=CARTESIAN_POINT('Origin',(13.9358533692239,3.7602011427363,100.));
#432=CARTESIAN_POINT('Origin',(13.9358533692239,3.7602011427363,0.));
#433=UNCERTAINTY_MEASURE_WITH_UNIT(LENGTH_MEASURE(0.01),#437,
'DISTANCE_ACCURACY_VALUE',
'Maximum model space distance between geometric entities at asserted c
onnectivities');
#434=UNCERTAINTY_MEASURE_WITH_UNIT(LENGTH_MEASURE(0.01),#437,
'DISTANCE_ACCURACY_VALUE',
'Maximum model space distance between geometric entities at asserted c
onnectivities');
#435=(
GEOMETRIC_REPRESENTATION_CONTEXT(3)
GLOBAL_UNCERTAINTY_ASSIGNED_CONTEXT((#433))
GLOBAL_UNIT_ASSIGNED_CONTEXT((#437,#440,#439))
REPRESENTATION_CONTEXT('','3D')
);
#436=(
GEOMETRIC_REPRESENTATION_CONTEXT(3)
GLOBAL_UNCERTAINTY_ASSIGNED_CONTEXT((#434))
GLOBAL_UNIT_ASSIGNED_CONTEXT((#437,#440,#439))
REPRESENTATION_CONTEXT('','3D')
);
#437=(
LENGTH_UNIT()
NAMED_UNIT(*)
SI_UNIT(.MILLI.,.METRE.)
);
#438=(
LENGTH_UNIT()
NAMED_UNIT(*)
SI_UNIT(.CENTI.,.METRE.)
);
#439=(
NAMED_UNIT(*)
SI_UNIT($,.STERADIAN.)
SOLID_ANGLE_UNIT()
);
#440=(
NAMED_UNIT(*)
PLANE_ANGLE_UNIT()
SI_UNIT($,.RADIAN.)
);
#441=SHAPE_DEFINITION_REPRESENTATION(#442,#443);
#442=PRODUCT_DEFINITION_SHAPE('',$,#445);
#443=SHAPE_REPRESENTATION('',(#265),#435);
#444=PRODUCT_DEFINITION_CONTEXT('part definition',#449,'design');
#445=PRODUCT_DEFINITION('PI-1445_Scharnierlappenprofil leicht _e-8',
'PI-1445_Scharnierlappenprofil leicht _e-8',#446,#444);
#446=PRODUCT_DEFINITION_FORMATION('',$,#451);
#447=PRODUCT_RELATED_PRODUCT_CATEGORY(
'PI-1445_Scharnierlappenprofil leicht _e-8',
'PI-1445_Scharnierlappenprofil leicht _e-8',(#451));
#448=APPLICATION_PROTOCOL_DEFINITION('international standard',
'automotive_design',2009,#449);
#449=APPLICATION_CONTEXT(
'Core Data for Automotive Mechanical Design Process');
#450=PRODUCT_CONTEXT('part definition',#449,'mechanical');
#451=PRODUCT('PI-1445_Scharnierlappenprofil leicht _e-8',
'PI-1445_Scharnierlappenprofil leicht _e-8',$,(#450));
#452=PRESENTATION_STYLE_ASSIGNMENT((#453));
#453=SURFACE_STYLE_USAGE(.BOTH.,#454);
#454=SURFACE_SIDE_STYLE('',(#455));
#455=SURFACE_STYLE_FILL_AREA(#456);
#456=FILL_AREA_STYLE('',(#457));
#457=FILL_AREA_STYLE_COLOUR('',#458);
#458=COLOUR_RGB('',0.749019607843137,0.749019607843137,0.749019607843137);
ENDSEC;
END-ISO-10303-21;
