ISO-10303-21;
HEADER;
/* Generated by software containing ST-Developer
 * from STEP Tools, Inc. (www.steptools.com) 
 */

FILE_DESCRIPTION(
/* description */ (''),
/* implementation_level */ '2;1');

FILE_NAME(
/* name */ 
'M:\\Inventor Vorlage\\3_L-Lean_Baukasten\\5_Zubeh\X\F6r_Rohrsteck\\1_
Zubeh\X\F6r\\M-094 Aufnahmehaken gerade, schwarz\\M-094 Aufnahmehaken 
gerade, schwarz.stp',
/* time_stamp */ '2020-08-12T08:50:24+02:00',
/* author */ ('jmaun'),
/* organization */ (''),
/* preprocessor_version */ 'ST-DEVELOPER v17',
/* originating_system */ 'Autodesk Inventor 2019',
/* authorisation */ '');

FILE_SCHEMA (('AUTOMOTIVE_DESIGN { 1 0 10303 214 3 1 1 }'));
ENDSEC;

DATA;
#10=MECHANICAL_DESIGN_GEOMETRIC_PRESENTATION_REPRESENTATION('',(#13),#245);
#11=SHAPE_REPRESENTATION_RELATIONSHIP('SRR','None',#252,#12);
#12=ADVANCED_BREP_SHAPE_REPRESENTATION('',(#14),#244);
#13=STYLED_ITEM('',(#262),#14);
#14=MANIFOLD_SOLID_BREP('Volumenk\X\F6rper1',#120);
#15=TOROIDAL_SURFACE('',#146,15.81,1.5);
#16=TOROIDAL_SURFACE('',#153,3.54,1.5);
#17=TOROIDAL_SURFACE('',#157,15.5,1.5);
#18=LINE('',#218,#20);
#19=LINE('',#230,#21);
#20=VECTOR('',#175,1.5);
#21=VECTOR('',#190,1.5);
#22=CYLINDRICAL_SURFACE('',#143,1.5);
#23=CYLINDRICAL_SURFACE('',#150,1.5);
#24=FACE_OUTER_BOUND('',#31,.T.);
#25=FACE_OUTER_BOUND('',#32,.T.);
#26=FACE_OUTER_BOUND('',#33,.T.);
#27=FACE_OUTER_BOUND('',#34,.T.);
#28=FACE_OUTER_BOUND('',#35,.T.);
#29=FACE_OUTER_BOUND('',#36,.T.);
#30=FACE_OUTER_BOUND('',#37,.T.);
#31=EDGE_LOOP('',(#79,#80));
#32=EDGE_LOOP('',(#81,#82,#83,#84,#85,#86));
#33=EDGE_LOOP('',(#87,#88,#89,#90,#91,#92));
#34=EDGE_LOOP('',(#93,#94,#95,#96,#97,#98));
#35=EDGE_LOOP('',(#99,#100,#101,#102,#103,#104));
#36=EDGE_LOOP('',(#105,#106,#107,#108,#109));
#37=EDGE_LOOP('',(#110));
#38=CIRCLE('',#141,1.5);
#39=CIRCLE('',#142,1.5);
#40=CIRCLE('',#144,1.5);
#41=CIRCLE('',#145,1.5);
#42=CIRCLE('',#147,1.5);
#43=CIRCLE('',#148,1.5);
#44=CIRCLE('',#149,14.31);
#45=CIRCLE('',#151,1.5);
#46=CIRCLE('',#152,1.5);
#47=CIRCLE('',#154,1.5);
#48=CIRCLE('',#155,2.04);
#49=CIRCLE('',#156,1.5);
#50=CIRCLE('',#158,1.5);
#51=CIRCLE('',#159,14.);
#52=VERTEX_POINT('',#209);
#53=VERTEX_POINT('',#210);
#54=VERTEX_POINT('',#214);
#55=VERTEX_POINT('',#215);
#56=VERTEX_POINT('',#220);
#57=VERTEX_POINT('',#221);
#58=VERTEX_POINT('',#226);
#59=VERTEX_POINT('',#227);
#60=VERTEX_POINT('',#232);
#61=VERTEX_POINT('',#233);
#62=VERTEX_POINT('',#238);
#63=EDGE_CURVE('',#52,#53,#38,.T.);
#64=EDGE_CURVE('',#53,#52,#39,.T.);
#65=EDGE_CURVE('',#54,#55,#40,.T.);
#66=EDGE_CURVE('',#55,#54,#41,.T.);
#67=EDGE_CURVE('',#55,#53,#18,.T.);
#68=EDGE_CURVE('',#56,#57,#42,.T.);
#69=EDGE_CURVE('',#57,#56,#43,.T.);
#70=EDGE_CURVE('',#57,#54,#44,.T.);
#71=EDGE_CURVE('',#58,#59,#45,.T.);
#72=EDGE_CURVE('',#59,#58,#46,.T.);
#73=EDGE_CURVE('',#59,#56,#19,.T.);
#74=EDGE_CURVE('',#60,#61,#47,.T.);
#75=EDGE_CURVE('',#60,#59,#48,.T.);
#76=EDGE_CURVE('',#61,#60,#49,.T.);
#77=EDGE_CURVE('',#62,#62,#50,.T.);
#78=EDGE_CURVE('',#62,#61,#51,.T.);
#79=ORIENTED_EDGE('',*,*,#63,.F.);
#80=ORIENTED_EDGE('',*,*,#64,.F.);
#81=ORIENTED_EDGE('',*,*,#65,.F.);
#82=ORIENTED_EDGE('',*,*,#66,.F.);
#83=ORIENTED_EDGE('',*,*,#67,.T.);
#84=ORIENTED_EDGE('',*,*,#64,.T.);
#85=ORIENTED_EDGE('',*,*,#63,.T.);
#86=ORIENTED_EDGE('',*,*,#67,.F.);
#87=ORIENTED_EDGE('',*,*,#68,.F.);
#88=ORIENTED_EDGE('',*,*,#69,.F.);
#89=ORIENTED_EDGE('',*,*,#70,.T.);
#90=ORIENTED_EDGE('',*,*,#65,.T.);
#91=ORIENTED_EDGE('',*,*,#66,.T.);
#92=ORIENTED_EDGE('',*,*,#70,.F.);
#93=ORIENTED_EDGE('',*,*,#71,.F.);
#94=ORIENTED_EDGE('',*,*,#72,.F.);
#95=ORIENTED_EDGE('',*,*,#73,.T.);
#96=ORIENTED_EDGE('',*,*,#68,.T.);
#97=ORIENTED_EDGE('',*,*,#69,.T.);
#98=ORIENTED_EDGE('',*,*,#73,.F.);
#99=ORIENTED_EDGE('',*,*,#74,.F.);
#100=ORIENTED_EDGE('',*,*,#75,.T.);
#101=ORIENTED_EDGE('',*,*,#72,.T.);
#102=ORIENTED_EDGE('',*,*,#71,.T.);
#103=ORIENTED_EDGE('',*,*,#75,.F.);
#104=ORIENTED_EDGE('',*,*,#76,.F.);
#105=ORIENTED_EDGE('',*,*,#77,.F.);
#106=ORIENTED_EDGE('',*,*,#78,.T.);
#107=ORIENTED_EDGE('',*,*,#76,.T.);
#108=ORIENTED_EDGE('',*,*,#74,.T.);
#109=ORIENTED_EDGE('',*,*,#78,.F.);
#110=ORIENTED_EDGE('',*,*,#77,.T.);
#111=PLANE('',#140);
#112=PLANE('',#160);
#113=ADVANCED_FACE('',(#24),#111,.F.);
#114=ADVANCED_FACE('',(#25),#22,.T.);
#115=ADVANCED_FACE('',(#26),#15,.T.);
#116=ADVANCED_FACE('',(#27),#23,.T.);
#117=ADVANCED_FACE('',(#28),#16,.T.);
#118=ADVANCED_FACE('',(#29),#17,.T.);
#119=ADVANCED_FACE('',(#30),#112,.T.);
#120=CLOSED_SHELL('',(#113,#114,#115,#116,#117,#118,#119));
#121=DERIVED_UNIT_ELEMENT(#123,1.);
#122=DERIVED_UNIT_ELEMENT(#247,3.);
#123=(
MASS_UNIT()
NAMED_UNIT(*)
SI_UNIT($,.GRAM.)
);
#124=DERIVED_UNIT((#121,#122));
#125=MEASURE_REPRESENTATION_ITEM('density measure',
POSITIVE_RATIO_MEASURE(1.),#124);
#126=PROPERTY_DEFINITION_REPRESENTATION(#131,#128);
#127=PROPERTY_DEFINITION_REPRESENTATION(#132,#129);
#128=REPRESENTATION('material name',(#130),#244);
#129=REPRESENTATION('density',(#125),#244);
#130=DESCRIPTIVE_REPRESENTATION_ITEM('Generisch','Generisch');
#131=PROPERTY_DEFINITION('material property','material name',#254);
#132=PROPERTY_DEFINITION('material property','density of part',#254);
#133=DATE_TIME_ROLE('creation_date');
#134=APPLIED_DATE_AND_TIME_ASSIGNMENT(#135,#133,(#254));
#135=DATE_AND_TIME(#136,#137);
#136=CALENDAR_DATE(2019,24,10);
#137=LOCAL_TIME(8,35,33.,#138);
#138=COORDINATED_UNIVERSAL_TIME_OFFSET(0,0,.BEHIND.);
#139=AXIS2_PLACEMENT_3D('placement',#207,#161,#162);
#140=AXIS2_PLACEMENT_3D('',#208,#163,#164);
#141=AXIS2_PLACEMENT_3D('',#211,#165,#166);
#142=AXIS2_PLACEMENT_3D('',#212,#167,#168);
#143=AXIS2_PLACEMENT_3D('',#213,#169,#170);
#144=AXIS2_PLACEMENT_3D('',#216,#171,#172);
#145=AXIS2_PLACEMENT_3D('',#217,#173,#174);
#146=AXIS2_PLACEMENT_3D('',#219,#176,#177);
#147=AXIS2_PLACEMENT_3D('',#222,#178,#179);
#148=AXIS2_PLACEMENT_3D('',#223,#180,#181);
#149=AXIS2_PLACEMENT_3D('',#224,#182,#183);
#150=AXIS2_PLACEMENT_3D('',#225,#184,#185);
#151=AXIS2_PLACEMENT_3D('',#228,#186,#187);
#152=AXIS2_PLACEMENT_3D('',#229,#188,#189);
#153=AXIS2_PLACEMENT_3D('',#231,#191,#192);
#154=AXIS2_PLACEMENT_3D('',#234,#193,#194);
#155=AXIS2_PLACEMENT_3D('',#235,#195,#196);
#156=AXIS2_PLACEMENT_3D('',#236,#197,#198);
#157=AXIS2_PLACEMENT_3D('',#237,#199,#200);
#158=AXIS2_PLACEMENT_3D('',#239,#201,#202);
#159=AXIS2_PLACEMENT_3D('',#240,#203,#204);
#160=AXIS2_PLACEMENT_3D('',#241,#205,#206);
#161=DIRECTION('axis',(0.,0.,1.));
#162=DIRECTION('refdir',(1.,0.,0.));
#163=DIRECTION('center_axis',(1.,0.,0.));
#164=DIRECTION('ref_axis',(0.,0.,-1.));
#165=DIRECTION('center_axis',(1.,0.,0.));
#166=DIRECTION('ref_axis',(0.,0.,-1.));
#167=DIRECTION('center_axis',(1.,0.,0.));
#168=DIRECTION('ref_axis',(0.,0.,-1.));
#169=DIRECTION('center_axis',(1.,0.,0.));
#170=DIRECTION('ref_axis',(0.,0.,-1.));
#171=DIRECTION('center_axis',(1.,0.,0.));
#172=DIRECTION('ref_axis',(0.,0.,-1.));
#173=DIRECTION('center_axis',(1.,0.,0.));
#174=DIRECTION('ref_axis',(0.,0.,-1.));
#175=DIRECTION('',(-1.,0.,0.));
#176=DIRECTION('center_axis',(0.,1.,0.));
#177=DIRECTION('ref_axis',(0.,0.,-1.));
#178=DIRECTION('center_axis',(-1.,0.,0.));
#179=DIRECTION('ref_axis',(0.,0.,-1.));
#180=DIRECTION('center_axis',(-1.,0.,0.));
#181=DIRECTION('ref_axis',(0.,0.,-1.));
#182=DIRECTION('center_axis',(0.,-1.,0.));
#183=DIRECTION('ref_axis',(0.,0.,-1.));
#184=DIRECTION('center_axis',(-1.,0.,0.));
#185=DIRECTION('ref_axis',(0.,0.,1.));
#186=DIRECTION('center_axis',(-1.,0.,0.));
#187=DIRECTION('ref_axis',(0.,0.,1.));
#188=DIRECTION('center_axis',(-1.,0.,0.));
#189=DIRECTION('ref_axis',(0.,0.,1.));
#190=DIRECTION('',(1.,0.,0.));
#191=DIRECTION('center_axis',(0.,-1.,0.));
#192=DIRECTION('ref_axis',(0.,0.,-1.));
#193=DIRECTION('center_axis',(-0.185924369747894,0.,-0.98256405833607));
#194=DIRECTION('ref_axis',(0.98256405833607,0.,-0.185924369747894));
#195=DIRECTION('center_axis',(0.,1.,0.));
#196=DIRECTION('ref_axis',(0.,0.,-1.));
#197=DIRECTION('center_axis',(-0.185924369747894,0.,-0.98256405833607));
#198=DIRECTION('ref_axis',(0.98256405833607,0.,-0.185924369747894));
#199=DIRECTION('center_axis',(0.,1.,0.));
#200=DIRECTION('ref_axis',(-0.98256405833607,0.,0.185924369747894));
#201=DIRECTION('center_axis',(0.453548387096814,0.,-0.891231653702828));
#202=DIRECTION('ref_axis',(-0.891231653702828,0.,-0.453548387096814));
#203=DIRECTION('center_axis',(0.,-1.,0.));
#204=DIRECTION('ref_axis',(-0.98256405833607,0.,0.185924369747894));
#205=DIRECTION('center_axis',(0.453548387096814,0.,-0.891231653702828));
#206=DIRECTION('ref_axis',(-0.891231653702829,0.,-0.453548387096814));
#207=CARTESIAN_POINT('',(0.,0.,0.));
#208=CARTESIAN_POINT('Origin',(38.,0.,31.62));
#209=CARTESIAN_POINT('',(38.,0.,30.12));
#210=CARTESIAN_POINT('',(38.,-1.83697019872103E-16,33.12));
#211=CARTESIAN_POINT('Origin',(38.,0.,31.62));
#212=CARTESIAN_POINT('Origin',(38.,0.,31.62));
#213=CARTESIAN_POINT('Origin',(38.,0.,31.62));
#214=CARTESIAN_POINT('',(50.,0.,30.12));
#215=CARTESIAN_POINT('',(50.,-1.83697019872103E-16,33.12));
#216=CARTESIAN_POINT('Origin',(50.,0.,31.62));
#217=CARTESIAN_POINT('Origin',(50.,0.,31.62));
#218=CARTESIAN_POINT('',(38.,-1.83697019872103E-16,33.12));
#219=CARTESIAN_POINT('Origin',(50.,0.,15.81));
#220=CARTESIAN_POINT('',(50.,0.,-1.5));
#221=CARTESIAN_POINT('',(50.,-1.83697019872103E-16,1.5));
#222=CARTESIAN_POINT('Origin',(50.,0.,0.));
#223=CARTESIAN_POINT('Origin',(50.,0.,0.));
#224=CARTESIAN_POINT('Origin',(50.,-1.83697019872103E-16,15.81));
#225=CARTESIAN_POINT('Origin',(50.,0.,0.));
#226=CARTESIAN_POINT('',(18.70801967072,0.,1.5));
#227=CARTESIAN_POINT('',(18.70801967072,-1.83697019872103E-16,-1.5));
#228=CARTESIAN_POINT('Origin',(18.70801967072,0.,0.));
#229=CARTESIAN_POINT('Origin',(18.70801967072,0.,0.));
#230=CARTESIAN_POINT('',(50.,-1.83697019872103E-16,-1.5));
#231=CARTESIAN_POINT('Origin',(18.70801967072,0.,-3.54));
#232=CARTESIAN_POINT('',(16.70358899171,0.,-3.160714285714));
#233=CARTESIAN_POINT('',(13.7558968167059,-1.83697019872103E-16,-2.60294117647016));
#234=CARTESIAN_POINT('Origin',(15.22974290421,0.,-2.881827731092));
#235=CARTESIAN_POINT('Origin',(18.70801967072,1.83697019872103E-16,-3.54));
#236=CARTESIAN_POINT('Origin',(15.22974290421,0.,-2.881827731092));
#237=CARTESIAN_POINT('Origin',(0.,0.,0.));
#238=CARTESIAN_POINT('',(12.47724315184,0.,6.349677419355));
#239=CARTESIAN_POINT('Origin',(13.81409063239,0.,7.03));
#240=CARTESIAN_POINT('Origin',(0.,-1.83697019872103E-16,0.));
#241=CARTESIAN_POINT('Origin',(0.,-1.,0.));
#242=UNCERTAINTY_MEASURE_WITH_UNIT(LENGTH_MEASURE(0.01),#246,
'DISTANCE_ACCURACY_VALUE',
'Maximum model space distance between geometric entities at asserted c
onnectivities');
#243=UNCERTAINTY_MEASURE_WITH_UNIT(LENGTH_MEASURE(0.01),#246,
'DISTANCE_ACCURACY_VALUE',
'Maximum model space distance between geometric entities at asserted c
onnectivities');
#244=(
GEOMETRIC_REPRESENTATION_CONTEXT(3)
GLOBAL_UNCERTAINTY_ASSIGNED_CONTEXT((#242))
GLOBAL_UNIT_ASSIGNED_CONTEXT((#246,#249,#248))
REPRESENTATION_CONTEXT('','3D')
);
#245=(
GEOMETRIC_REPRESENTATION_CONTEXT(3)
GLOBAL_UNCERTAINTY_ASSIGNED_CONTEXT((#243))
GLOBAL_UNIT_ASSIGNED_CONTEXT((#246,#249,#248))
REPRESENTATION_CONTEXT('','3D')
);
#246=(
LENGTH_UNIT()
NAMED_UNIT(*)
SI_UNIT(.MILLI.,.METRE.)
);
#247=(
LENGTH_UNIT()
NAMED_UNIT(*)
SI_UNIT(.CENTI.,.METRE.)
);
#248=(
NAMED_UNIT(*)
SI_UNIT($,.STERADIAN.)
SOLID_ANGLE_UNIT()
);
#249=(
NAMED_UNIT(*)
PLANE_ANGLE_UNIT()
SI_UNIT($,.RADIAN.)
);
#250=SHAPE_DEFINITION_REPRESENTATION(#251,#252);
#251=PRODUCT_DEFINITION_SHAPE('',$,#254);
#252=SHAPE_REPRESENTATION('',(#139),#244);
#253=PRODUCT_DEFINITION_CONTEXT('part definition',#258,'design');
#254=PRODUCT_DEFINITION('M-094 Aufnahmehaken gerade, schwarz',
'M-094 Aufnahmehaken gerade, schwarz',#255,#253);
#255=PRODUCT_DEFINITION_FORMATION('1LAST_VERSION',$,#260);
#256=PRODUCT_RELATED_PRODUCT_CATEGORY(
'M-094 Aufnahmehaken gerade, schwarz',
'M-094 Aufnahmehaken gerade, schwarz',(#260));
#257=APPLICATION_PROTOCOL_DEFINITION('international standard',
'automotive_design',2009,#258);
#258=APPLICATION_CONTEXT(
'Core Data for Automotive Mechanical Design Process');
#259=PRODUCT_CONTEXT('part definition',#258,'mechanical');
#260=PRODUCT('M-094 Aufnahmehaken gerade, schwarz',
'M-094 Aufnahmehaken gerade, schwarz',$,(#259));
#261=PRESENTATION_STYLE_ASSIGNMENT((#263));
#262=PRESENTATION_STYLE_ASSIGNMENT((#264));
#263=SURFACE_STYLE_USAGE(.BOTH.,#265);
#264=SURFACE_STYLE_USAGE(.BOTH.,#266);
#265=SURFACE_SIDE_STYLE('',(#267));
#266=SURFACE_SIDE_STYLE('',(#268));
#267=SURFACE_STYLE_FILL_AREA(#269);
#268=SURFACE_STYLE_FILL_AREA(#270);
#269=FILL_AREA_STYLE('',(#271));
#270=FILL_AREA_STYLE('',(#272));
#271=FILL_AREA_STYLE_COLOUR('',#273);
#272=FILL_AREA_STYLE_COLOUR('',#274);
#273=COLOUR_RGB('',0.749019607843137,0.749019607843137,0.749019607843137);
#274=COLOUR_RGB('',0.,0.,0.);
ENDSEC;
END-ISO-10303-21;
