ISO-10303-21;
HEADER;
/* Generated by software containing ST-Developer
 * from STEP Tools, Inc. (www.steptools.com) 
 */

FILE_DESCRIPTION(
/* description */ (''),
/* implementation_level */ '2;1');

FILE_NAME(
/* name */ 
'M:\\Inventor Vorlage\\1_I-Baukasten\\4_Abdeckelemente\\1_Abdeckung_de
r_Stirnseite\\Nut_5\\AI-4026_Abdeckkappe_20x20_grau-5\\AI-4026_Abdeckk
appe_20x20_grau-5.stp',
/* time_stamp */ '2020-07-20T13:22:58+02:00',
/* author */ ('jmaun'),
/* organization */ ('maunsystem'),
/* preprocessor_version */ 'ST-DEVELOPER v17',
/* originating_system */ 'Autodesk Inventor 2019',
/* authorisation */ '');

FILE_SCHEMA (('AUTOMOTIVE_DESIGN { 1 0 10303 214 3 1 1 }'));
ENDSEC;

DATA;
#10=MECHANICAL_DESIGN_GEOMETRIC_PRESENTATION_REPRESENTATION('',(#13),#493);
#11=SHAPE_REPRESENTATION_RELATIONSHIP('SRR','None',#500,#12);
#12=ADVANCED_BREP_SHAPE_REPRESENTATION('',(#14),#492);
#13=STYLED_ITEM('',(#510),#14);
#14=MANIFOLD_SOLID_BREP('Volumenk\X\F6rper1',#271);
#15=PLANE('',#313);
#16=PLANE('',#316);
#17=PLANE('',#317);
#18=PLANE('',#318);
#19=PLANE('',#321);
#20=PLANE('',#324);
#21=SPHERICAL_SURFACE('',#300,1.5);
#22=SPHERICAL_SURFACE('',#305,1.5);
#23=SPHERICAL_SURFACE('',#307,1.5);
#24=SPHERICAL_SURFACE('',#309,1.5);
#25=FACE_OUTER_BOUND('',#43,.T.);
#26=FACE_OUTER_BOUND('',#44,.T.);
#27=FACE_OUTER_BOUND('',#45,.T.);
#28=FACE_OUTER_BOUND('',#46,.T.);
#29=FACE_OUTER_BOUND('',#47,.T.);
#30=FACE_OUTER_BOUND('',#48,.T.);
#31=FACE_OUTER_BOUND('',#49,.T.);
#32=FACE_OUTER_BOUND('',#50,.T.);
#33=FACE_OUTER_BOUND('',#51,.T.);
#34=FACE_OUTER_BOUND('',#52,.T.);
#35=FACE_OUTER_BOUND('',#53,.T.);
#36=FACE_OUTER_BOUND('',#54,.T.);
#37=FACE_OUTER_BOUND('',#55,.T.);
#38=FACE_OUTER_BOUND('',#56,.T.);
#39=FACE_OUTER_BOUND('',#57,.T.);
#40=FACE_OUTER_BOUND('',#58,.T.);
#41=FACE_OUTER_BOUND('',#59,.T.);
#42=FACE_OUTER_BOUND('',#60,.T.);
#43=EDGE_LOOP('',(#173,#174,#175,#176));
#44=EDGE_LOOP('',(#177,#178,#179,#180));
#45=EDGE_LOOP('',(#181,#182,#183,#184));
#46=EDGE_LOOP('',(#185,#186,#187));
#47=EDGE_LOOP('',(#188,#189,#190,#191));
#48=EDGE_LOOP('',(#192,#193,#194));
#49=EDGE_LOOP('',(#195,#196,#197));
#50=EDGE_LOOP('',(#198,#199,#200));
#51=EDGE_LOOP('',(#201,#202,#203,#204));
#52=EDGE_LOOP('',(#205,#206,#207,#208));
#53=EDGE_LOOP('',(#209,#210,#211,#212));
#54=EDGE_LOOP('',(#213,#214,#215,#216));
#55=EDGE_LOOP('',(#217,#218,#219,#220));
#56=EDGE_LOOP('',(#221,#222,#223,#224));
#57=EDGE_LOOP('',(#225,#226,#227,#228));
#58=EDGE_LOOP('',(#229,#230,#231,#232));
#59=EDGE_LOOP('',(#233,#234,#235,#236));
#60=EDGE_LOOP('',(#237,#238,#239,#240,#241,#242,#243,#244));
#61=LINE('',#421,#81);
#62=LINE('',#424,#82);
#63=LINE('',#429,#83);
#64=LINE('',#432,#84);
#65=LINE('',#437,#85);
#66=LINE('',#440,#86);
#67=LINE('',#446,#87);
#68=LINE('',#449,#88);
#69=LINE('',#458,#89);
#70=LINE('',#461,#90);
#71=LINE('',#464,#91);
#72=LINE('',#465,#92);
#73=LINE('',#468,#93);
#74=LINE('',#472,#94);
#75=LINE('',#473,#95);
#76=LINE('',#477,#96);
#77=LINE('',#478,#97);
#78=LINE('',#481,#98);
#79=LINE('',#485,#99);
#80=LINE('',#486,#100);
#81=VECTOR('',#331,17.);
#82=VECTOR('',#334,17.);
#83=VECTOR('',#339,17.);
#84=VECTOR('',#342,17.);
#85=VECTOR('',#347,17.);
#86=VECTOR('',#350,17.);
#87=VECTOR('',#359,17.);
#88=VECTOR('',#362,17.);
#89=VECTOR('',#377,1.);
#90=VECTOR('',#380,1.);
#91=VECTOR('',#383,1.);
#92=VECTOR('',#384,17.);
#93=VECTOR('',#387,1.);
#94=VECTOR('',#392,1.);
#95=VECTOR('',#393,17.);
#96=VECTOR('',#398,17.);
#97=VECTOR('',#399,1.);
#98=VECTOR('',#402,1.);
#99=VECTOR('',#407,1.);
#100=VECTOR('',#408,17.);
#101=CIRCLE('',#292,1.5);
#102=CIRCLE('',#293,1.5);
#103=CIRCLE('',#295,1.5);
#104=CIRCLE('',#296,1.5);
#105=CIRCLE('',#298,1.5);
#106=CIRCLE('',#299,1.5);
#107=CIRCLE('',#301,1.5);
#108=CIRCLE('',#303,1.5);
#109=CIRCLE('',#304,1.5);
#110=CIRCLE('',#306,1.5);
#111=CIRCLE('',#308,1.5);
#112=CIRCLE('',#310,1.5);
#113=CIRCLE('',#312,1.5);
#114=CIRCLE('',#315,1.5);
#115=CIRCLE('',#320,1.5);
#116=CIRCLE('',#323,1.5);
#117=VERTEX_POINT('',#417);
#118=VERTEX_POINT('',#418);
#119=VERTEX_POINT('',#420);
#120=VERTEX_POINT('',#422);
#121=VERTEX_POINT('',#426);
#122=VERTEX_POINT('',#428);
#123=VERTEX_POINT('',#430);
#124=VERTEX_POINT('',#434);
#125=VERTEX_POINT('',#436);
#126=VERTEX_POINT('',#438);
#127=VERTEX_POINT('',#444);
#128=VERTEX_POINT('',#447);
#129=VERTEX_POINT('',#457);
#130=VERTEX_POINT('',#459);
#131=VERTEX_POINT('',#463);
#132=VERTEX_POINT('',#467);
#133=VERTEX_POINT('',#471);
#134=VERTEX_POINT('',#476);
#135=VERTEX_POINT('',#480);
#136=VERTEX_POINT('',#484);
#137=EDGE_CURVE('',#117,#118,#101,.T.);
#138=EDGE_CURVE('',#118,#119,#61,.T.);
#139=EDGE_CURVE('',#119,#120,#102,.T.);
#140=EDGE_CURVE('',#120,#117,#62,.T.);
#141=EDGE_CURVE('',#121,#119,#103,.T.);
#142=EDGE_CURVE('',#119,#122,#63,.T.);
#143=EDGE_CURVE('',#122,#123,#104,.T.);
#144=EDGE_CURVE('',#123,#121,#64,.T.);
#145=EDGE_CURVE('',#124,#122,#105,.T.);
#146=EDGE_CURVE('',#122,#125,#65,.T.);
#147=EDGE_CURVE('',#125,#126,#106,.T.);
#148=EDGE_CURVE('',#126,#124,#66,.T.);
#149=EDGE_CURVE('',#124,#123,#107,.T.);
#150=EDGE_CURVE('',#127,#125,#108,.T.);
#151=EDGE_CURVE('',#125,#118,#67,.T.);
#152=EDGE_CURVE('',#118,#128,#109,.T.);
#153=EDGE_CURVE('',#128,#127,#68,.T.);
#154=EDGE_CURVE('',#127,#126,#110,.T.);
#155=EDGE_CURVE('',#121,#120,#111,.T.);
#156=EDGE_CURVE('',#117,#128,#112,.T.);
#157=EDGE_CURVE('',#129,#124,#69,.T.);
#158=EDGE_CURVE('',#129,#130,#113,.T.);
#159=EDGE_CURVE('',#130,#123,#70,.T.);
#160=EDGE_CURVE('',#131,#126,#71,.T.);
#161=EDGE_CURVE('',#131,#129,#72,.T.);
#162=EDGE_CURVE('',#132,#127,#73,.T.);
#163=EDGE_CURVE('',#132,#131,#114,.T.);
#164=EDGE_CURVE('',#133,#128,#74,.T.);
#165=EDGE_CURVE('',#133,#132,#75,.T.);
#166=EDGE_CURVE('',#130,#134,#76,.T.);
#167=EDGE_CURVE('',#134,#121,#77,.T.);
#168=EDGE_CURVE('',#135,#117,#78,.T.);
#169=EDGE_CURVE('',#135,#133,#115,.T.);
#170=EDGE_CURVE('',#136,#120,#79,.T.);
#171=EDGE_CURVE('',#136,#135,#80,.T.);
#172=EDGE_CURVE('',#134,#136,#116,.T.);
#173=ORIENTED_EDGE('',*,*,#137,.T.);
#174=ORIENTED_EDGE('',*,*,#138,.T.);
#175=ORIENTED_EDGE('',*,*,#139,.T.);
#176=ORIENTED_EDGE('',*,*,#140,.T.);
#177=ORIENTED_EDGE('',*,*,#141,.T.);
#178=ORIENTED_EDGE('',*,*,#142,.T.);
#179=ORIENTED_EDGE('',*,*,#143,.T.);
#180=ORIENTED_EDGE('',*,*,#144,.T.);
#181=ORIENTED_EDGE('',*,*,#145,.T.);
#182=ORIENTED_EDGE('',*,*,#146,.T.);
#183=ORIENTED_EDGE('',*,*,#147,.T.);
#184=ORIENTED_EDGE('',*,*,#148,.T.);
#185=ORIENTED_EDGE('',*,*,#145,.F.);
#186=ORIENTED_EDGE('',*,*,#149,.T.);
#187=ORIENTED_EDGE('',*,*,#143,.F.);
#188=ORIENTED_EDGE('',*,*,#150,.T.);
#189=ORIENTED_EDGE('',*,*,#151,.T.);
#190=ORIENTED_EDGE('',*,*,#152,.T.);
#191=ORIENTED_EDGE('',*,*,#153,.T.);
#192=ORIENTED_EDGE('',*,*,#150,.F.);
#193=ORIENTED_EDGE('',*,*,#154,.T.);
#194=ORIENTED_EDGE('',*,*,#147,.F.);
#195=ORIENTED_EDGE('',*,*,#141,.F.);
#196=ORIENTED_EDGE('',*,*,#155,.T.);
#197=ORIENTED_EDGE('',*,*,#139,.F.);
#198=ORIENTED_EDGE('',*,*,#137,.F.);
#199=ORIENTED_EDGE('',*,*,#156,.T.);
#200=ORIENTED_EDGE('',*,*,#152,.F.);
#201=ORIENTED_EDGE('',*,*,#149,.F.);
#202=ORIENTED_EDGE('',*,*,#157,.F.);
#203=ORIENTED_EDGE('',*,*,#158,.T.);
#204=ORIENTED_EDGE('',*,*,#159,.T.);
#205=ORIENTED_EDGE('',*,*,#148,.F.);
#206=ORIENTED_EDGE('',*,*,#160,.F.);
#207=ORIENTED_EDGE('',*,*,#161,.T.);
#208=ORIENTED_EDGE('',*,*,#157,.T.);
#209=ORIENTED_EDGE('',*,*,#154,.F.);
#210=ORIENTED_EDGE('',*,*,#162,.F.);
#211=ORIENTED_EDGE('',*,*,#163,.T.);
#212=ORIENTED_EDGE('',*,*,#160,.T.);
#213=ORIENTED_EDGE('',*,*,#153,.F.);
#214=ORIENTED_EDGE('',*,*,#164,.F.);
#215=ORIENTED_EDGE('',*,*,#165,.T.);
#216=ORIENTED_EDGE('',*,*,#162,.T.);
#217=ORIENTED_EDGE('',*,*,#138,.F.);
#218=ORIENTED_EDGE('',*,*,#151,.F.);
#219=ORIENTED_EDGE('',*,*,#146,.F.);
#220=ORIENTED_EDGE('',*,*,#142,.F.);
#221=ORIENTED_EDGE('',*,*,#144,.F.);
#222=ORIENTED_EDGE('',*,*,#159,.F.);
#223=ORIENTED_EDGE('',*,*,#166,.T.);
#224=ORIENTED_EDGE('',*,*,#167,.T.);
#225=ORIENTED_EDGE('',*,*,#156,.F.);
#226=ORIENTED_EDGE('',*,*,#168,.F.);
#227=ORIENTED_EDGE('',*,*,#169,.T.);
#228=ORIENTED_EDGE('',*,*,#164,.T.);
#229=ORIENTED_EDGE('',*,*,#140,.F.);
#230=ORIENTED_EDGE('',*,*,#170,.F.);
#231=ORIENTED_EDGE('',*,*,#171,.T.);
#232=ORIENTED_EDGE('',*,*,#168,.T.);
#233=ORIENTED_EDGE('',*,*,#155,.F.);
#234=ORIENTED_EDGE('',*,*,#167,.F.);
#235=ORIENTED_EDGE('',*,*,#172,.T.);
#236=ORIENTED_EDGE('',*,*,#170,.T.);
#237=ORIENTED_EDGE('',*,*,#172,.F.);
#238=ORIENTED_EDGE('',*,*,#166,.F.);
#239=ORIENTED_EDGE('',*,*,#158,.F.);
#240=ORIENTED_EDGE('',*,*,#161,.F.);
#241=ORIENTED_EDGE('',*,*,#163,.F.);
#242=ORIENTED_EDGE('',*,*,#165,.F.);
#243=ORIENTED_EDGE('',*,*,#169,.F.);
#244=ORIENTED_EDGE('',*,*,#171,.F.);
#245=CYLINDRICAL_SURFACE('',#291,1.5);
#246=CYLINDRICAL_SURFACE('',#294,1.5);
#247=CYLINDRICAL_SURFACE('',#297,1.5);
#248=CYLINDRICAL_SURFACE('',#302,1.5);
#249=CYLINDRICAL_SURFACE('',#311,1.5);
#250=CYLINDRICAL_SURFACE('',#314,1.5);
#251=CYLINDRICAL_SURFACE('',#319,1.5);
#252=CYLINDRICAL_SURFACE('',#322,1.5);
#253=ADVANCED_FACE('',(#25),#245,.T.);
#254=ADVANCED_FACE('',(#26),#246,.T.);
#255=ADVANCED_FACE('',(#27),#247,.T.);
#256=ADVANCED_FACE('',(#28),#21,.T.);
#257=ADVANCED_FACE('',(#29),#248,.T.);
#258=ADVANCED_FACE('',(#30),#22,.T.);
#259=ADVANCED_FACE('',(#31),#23,.T.);
#260=ADVANCED_FACE('',(#32),#24,.T.);
#261=ADVANCED_FACE('',(#33),#249,.T.);
#262=ADVANCED_FACE('',(#34),#15,.T.);
#263=ADVANCED_FACE('',(#35),#250,.T.);
#264=ADVANCED_FACE('',(#36),#16,.T.);
#265=ADVANCED_FACE('',(#37),#17,.T.);
#266=ADVANCED_FACE('',(#38),#18,.T.);
#267=ADVANCED_FACE('',(#39),#251,.T.);
#268=ADVANCED_FACE('',(#40),#19,.T.);
#269=ADVANCED_FACE('',(#41),#252,.T.);
#270=ADVANCED_FACE('',(#42),#20,.F.);
#271=CLOSED_SHELL('',(#253,#254,#255,#256,#257,#258,#259,#260,#261,#262,
#263,#264,#265,#266,#267,#268,#269,#270));
#272=DERIVED_UNIT_ELEMENT(#274,1.);
#273=DERIVED_UNIT_ELEMENT(#495,3.);
#274=(
MASS_UNIT()
NAMED_UNIT(*)
SI_UNIT($,.GRAM.)
);
#275=DERIVED_UNIT((#272,#273));
#276=MEASURE_REPRESENTATION_ITEM('density measure',
POSITIVE_RATIO_MEASURE(1.),#275);
#277=PROPERTY_DEFINITION_REPRESENTATION(#282,#279);
#278=PROPERTY_DEFINITION_REPRESENTATION(#283,#280);
#279=REPRESENTATION('material name',(#281),#492);
#280=REPRESENTATION('density',(#276),#492);
#281=DESCRIPTIVE_REPRESENTATION_ITEM('Generisch','Generisch');
#282=PROPERTY_DEFINITION('material property','material name',#502);
#283=PROPERTY_DEFINITION('material property','density of part',#502);
#284=DATE_TIME_ROLE('creation_date');
#285=APPLIED_DATE_AND_TIME_ASSIGNMENT(#286,#284,(#502));
#286=DATE_AND_TIME(#287,#288);
#287=CALENDAR_DATE(2019,7,6);
#288=LOCAL_TIME(15,40,14.,#289);
#289=COORDINATED_UNIVERSAL_TIME_OFFSET(0,0,.BEHIND.);
#290=AXIS2_PLACEMENT_3D('placement',#415,#325,#326);
#291=AXIS2_PLACEMENT_3D('',#416,#327,#328);
#292=AXIS2_PLACEMENT_3D('',#419,#329,#330);
#293=AXIS2_PLACEMENT_3D('',#423,#332,#333);
#294=AXIS2_PLACEMENT_3D('',#425,#335,#336);
#295=AXIS2_PLACEMENT_3D('',#427,#337,#338);
#296=AXIS2_PLACEMENT_3D('',#431,#340,#341);
#297=AXIS2_PLACEMENT_3D('',#433,#343,#344);
#298=AXIS2_PLACEMENT_3D('',#435,#345,#346);
#299=AXIS2_PLACEMENT_3D('',#439,#348,#349);
#300=AXIS2_PLACEMENT_3D('',#441,#351,#352);
#301=AXIS2_PLACEMENT_3D('',#442,#353,#354);
#302=AXIS2_PLACEMENT_3D('',#443,#355,#356);
#303=AXIS2_PLACEMENT_3D('',#445,#357,#358);
#304=AXIS2_PLACEMENT_3D('',#448,#360,#361);
#305=AXIS2_PLACEMENT_3D('',#450,#363,#364);
#306=AXIS2_PLACEMENT_3D('',#451,#365,#366);
#307=AXIS2_PLACEMENT_3D('',#452,#367,#368);
#308=AXIS2_PLACEMENT_3D('',#453,#369,#370);
#309=AXIS2_PLACEMENT_3D('',#454,#371,#372);
#310=AXIS2_PLACEMENT_3D('',#455,#373,#374);
#311=AXIS2_PLACEMENT_3D('',#456,#375,#376);
#312=AXIS2_PLACEMENT_3D('',#460,#378,#379);
#313=AXIS2_PLACEMENT_3D('',#462,#381,#382);
#314=AXIS2_PLACEMENT_3D('',#466,#385,#386);
#315=AXIS2_PLACEMENT_3D('',#469,#388,#389);
#316=AXIS2_PLACEMENT_3D('',#470,#390,#391);
#317=AXIS2_PLACEMENT_3D('',#474,#394,#395);
#318=AXIS2_PLACEMENT_3D('',#475,#396,#397);
#319=AXIS2_PLACEMENT_3D('',#479,#400,#401);
#320=AXIS2_PLACEMENT_3D('',#482,#403,#404);
#321=AXIS2_PLACEMENT_3D('',#483,#405,#406);
#322=AXIS2_PLACEMENT_3D('',#487,#409,#410);
#323=AXIS2_PLACEMENT_3D('',#488,#411,#412);
#324=AXIS2_PLACEMENT_3D('',#489,#413,#414);
#325=DIRECTION('axis',(0.,0.,1.));
#326=DIRECTION('refdir',(1.,0.,0.));
#327=DIRECTION('center_axis',(-1.,0.,0.));
#328=DIRECTION('ref_axis',(0.,-0.707106781186547,0.707106781186548));
#329=DIRECTION('center_axis',(-1.,0.,0.));
#330=DIRECTION('ref_axis',(0.,-1.,0.));
#331=DIRECTION('',(-1.,0.,0.));
#332=DIRECTION('center_axis',(1.,0.,0.));
#333=DIRECTION('ref_axis',(0.,0.,1.));
#334=DIRECTION('',(1.,0.,0.));
#335=DIRECTION('center_axis',(0.,1.,0.));
#336=DIRECTION('ref_axis',(-0.707106781186547,0.,0.707106781186547));
#337=DIRECTION('center_axis',(0.,1.,0.));
#338=DIRECTION('ref_axis',(-1.,0.,0.));
#339=DIRECTION('',(0.,1.,0.));
#340=DIRECTION('center_axis',(0.,-1.,0.));
#341=DIRECTION('ref_axis',(0.,0.,1.));
#342=DIRECTION('',(0.,-1.,0.));
#343=DIRECTION('center_axis',(1.,0.,0.));
#344=DIRECTION('ref_axis',(0.,0.707106781186547,0.707106781186548));
#345=DIRECTION('center_axis',(1.,0.,0.));
#346=DIRECTION('ref_axis',(0.,1.,0.));
#347=DIRECTION('',(1.,0.,0.));
#348=DIRECTION('center_axis',(-1.,0.,0.));
#349=DIRECTION('ref_axis',(0.,0.,1.));
#350=DIRECTION('',(-1.,0.,0.));
#351=DIRECTION('center_axis',(6.12323399573677E-17,0.,1.));
#352=DIRECTION('ref_axis',(1.,0.,0.));
#353=DIRECTION('center_axis',(0.,0.,1.));
#354=DIRECTION('ref_axis',(0.,1.,0.));
#355=DIRECTION('center_axis',(0.,-1.,0.));
#356=DIRECTION('ref_axis',(0.707106781186547,0.,0.707106781186548));
#357=DIRECTION('center_axis',(0.,-1.,0.));
#358=DIRECTION('ref_axis',(1.,0.,0.));
#359=DIRECTION('',(0.,-1.,0.));
#360=DIRECTION('center_axis',(0.,1.,0.));
#361=DIRECTION('ref_axis',(0.,0.,1.));
#362=DIRECTION('',(0.,1.,0.));
#363=DIRECTION('center_axis',(0.,0.,1.));
#364=DIRECTION('ref_axis',(1.,0.,0.));
#365=DIRECTION('center_axis',(0.,0.,1.));
#366=DIRECTION('ref_axis',(1.,0.,0.));
#367=DIRECTION('center_axis',(6.12323399573677E-17,0.,1.));
#368=DIRECTION('ref_axis',(1.,0.,0.));
#369=DIRECTION('center_axis',(0.,0.,1.));
#370=DIRECTION('ref_axis',(-1.,0.,0.));
#371=DIRECTION('center_axis',(0.,0.,1.));
#372=DIRECTION('ref_axis',(1.,0.,0.));
#373=DIRECTION('center_axis',(0.,0.,1.));
#374=DIRECTION('ref_axis',(0.,-1.,0.));
#375=DIRECTION('center_axis',(0.,0.,1.));
#376=DIRECTION('ref_axis',(0.,1.,0.));
#377=DIRECTION('',(0.,0.,1.));
#378=DIRECTION('center_axis',(0.,0.,1.));
#379=DIRECTION('ref_axis',(0.,1.,0.));
#380=DIRECTION('',(0.,0.,1.));
#381=DIRECTION('center_axis',(0.,1.,0.));
#382=DIRECTION('ref_axis',(0.,0.,1.));
#383=DIRECTION('',(0.,0.,1.));
#384=DIRECTION('',(-1.,0.,0.));
#385=DIRECTION('center_axis',(0.,0.,1.));
#386=DIRECTION('ref_axis',(1.,0.,0.));
#387=DIRECTION('',(0.,0.,1.));
#388=DIRECTION('center_axis',(0.,0.,1.));
#389=DIRECTION('ref_axis',(1.,0.,0.));
#390=DIRECTION('center_axis',(1.,0.,0.));
#391=DIRECTION('ref_axis',(0.,0.,-1.));
#392=DIRECTION('',(0.,0.,1.));
#393=DIRECTION('',(0.,1.,0.));
#394=DIRECTION('center_axis',(0.,0.,1.));
#395=DIRECTION('ref_axis',(1.,0.,0.));
#396=DIRECTION('center_axis',(-1.,0.,0.));
#397=DIRECTION('ref_axis',(0.,0.,1.));
#398=DIRECTION('',(0.,-1.,0.));
#399=DIRECTION('',(0.,0.,1.));
#400=DIRECTION('center_axis',(0.,0.,1.));
#401=DIRECTION('ref_axis',(0.,-1.,0.));
#402=DIRECTION('',(0.,0.,1.));
#403=DIRECTION('center_axis',(0.,0.,1.));
#404=DIRECTION('ref_axis',(0.,-1.,0.));
#405=DIRECTION('center_axis',(0.,-1.,0.));
#406=DIRECTION('ref_axis',(0.,0.,-1.));
#407=DIRECTION('',(0.,0.,1.));
#408=DIRECTION('',(1.,0.,0.));
#409=DIRECTION('center_axis',(0.,0.,1.));
#410=DIRECTION('ref_axis',(-1.,0.,0.));
#411=DIRECTION('center_axis',(0.,0.,1.));
#412=DIRECTION('ref_axis',(-1.,0.,0.));
#413=DIRECTION('center_axis',(0.,0.,1.));
#414=DIRECTION('ref_axis',(1.,0.,0.));
#415=CARTESIAN_POINT('',(0.,0.,0.));
#416=CARTESIAN_POINT('Origin',(12.75,1.5,1.));
#417=CARTESIAN_POINT('',(17.,0.,1.));
#418=CARTESIAN_POINT('',(17.,1.5,2.5));
#419=CARTESIAN_POINT('Origin',(17.,1.5,1.));
#420=CARTESIAN_POINT('',(0.,1.5,2.5));
#421=CARTESIAN_POINT('',(17.,1.5,2.5));
#422=CARTESIAN_POINT('',(0.,0.,1.));
#423=CARTESIAN_POINT('Origin',(0.,1.5,1.));
#424=CARTESIAN_POINT('',(0.,0.,1.));
#425=CARTESIAN_POINT('Origin',(1.110223E-15,5.75,1.));
#426=CARTESIAN_POINT('',(-1.5,1.5,1.));
#427=CARTESIAN_POINT('Origin',(1.110223E-15,1.5,1.));
#428=CARTESIAN_POINT('',(1.110223E-15,18.5,2.5));
#429=CARTESIAN_POINT('',(1.110223E-15,1.5,2.5));
#430=CARTESIAN_POINT('',(-1.5,18.5,1.));
#431=CARTESIAN_POINT('Origin',(1.110223E-15,18.5,1.));
#432=CARTESIAN_POINT('',(-1.5,18.5,1.));
#433=CARTESIAN_POINT('Origin',(4.25,18.5,1.));
#434=CARTESIAN_POINT('',(0.,20.,1.));
#435=CARTESIAN_POINT('Origin',(0.,18.5,1.));
#436=CARTESIAN_POINT('',(17.,18.5,2.5));
#437=CARTESIAN_POINT('',(8.881784E-16,18.5,2.5));
#438=CARTESIAN_POINT('',(17.,20.,1.));
#439=CARTESIAN_POINT('Origin',(17.,18.5,1.));
#440=CARTESIAN_POINT('',(17.,20.,1.));
#441=CARTESIAN_POINT('Origin',(0.,18.5,1.));
#442=CARTESIAN_POINT('Origin',(0.,18.5,1.));
#443=CARTESIAN_POINT('Origin',(17.,14.25,1.));
#444=CARTESIAN_POINT('',(18.5,18.5,1.));
#445=CARTESIAN_POINT('Origin',(17.,18.5,1.));
#446=CARTESIAN_POINT('',(17.,18.5,2.5));
#447=CARTESIAN_POINT('',(18.5,1.5,1.));
#448=CARTESIAN_POINT('Origin',(17.,1.5,1.));
#449=CARTESIAN_POINT('',(18.5,1.5,1.));
#450=CARTESIAN_POINT('Origin',(17.,18.5,1.));
#451=CARTESIAN_POINT('Origin',(17.,18.5,1.));
#452=CARTESIAN_POINT('Origin',(1.110223E-15,1.5,1.));
#453=CARTESIAN_POINT('Origin',(0.,1.5,1.));
#454=CARTESIAN_POINT('Origin',(17.,1.5,1.));
#455=CARTESIAN_POINT('Origin',(17.,1.5,1.));
#456=CARTESIAN_POINT('Origin',(0.,18.5,0.));
#457=CARTESIAN_POINT('',(0.,20.,0.));
#458=CARTESIAN_POINT('',(0.,20.,0.));
#459=CARTESIAN_POINT('',(-1.5,18.5,0.));
#460=CARTESIAN_POINT('Origin',(0.,18.5,0.));
#461=CARTESIAN_POINT('',(-1.5,18.5,0.));
#462=CARTESIAN_POINT('Origin',(0.,20.,0.));
#463=CARTESIAN_POINT('',(17.,20.,0.));
#464=CARTESIAN_POINT('',(17.,20.,0.));
#465=CARTESIAN_POINT('',(17.,20.,0.));
#466=CARTESIAN_POINT('Origin',(17.,18.5,0.));
#467=CARTESIAN_POINT('',(18.5,18.5,0.));
#468=CARTESIAN_POINT('',(18.5,18.5,0.));
#469=CARTESIAN_POINT('Origin',(17.,18.5,0.));
#470=CARTESIAN_POINT('Origin',(18.5,18.5,0.));
#471=CARTESIAN_POINT('',(18.5,1.5,0.));
#472=CARTESIAN_POINT('',(18.5,1.5,0.));
#473=CARTESIAN_POINT('',(18.5,1.5,0.));
#474=CARTESIAN_POINT('Origin',(8.5,10.,2.5));
#475=CARTESIAN_POINT('Origin',(-1.5,1.5,0.));
#476=CARTESIAN_POINT('',(-1.5,1.5,0.));
#477=CARTESIAN_POINT('',(-1.5,18.5,0.));
#478=CARTESIAN_POINT('',(-1.5,1.5,0.));
#479=CARTESIAN_POINT('Origin',(17.,1.5,0.));
#480=CARTESIAN_POINT('',(17.,0.,0.));
#481=CARTESIAN_POINT('',(17.,0.,0.));
#482=CARTESIAN_POINT('Origin',(17.,1.5,0.));
#483=CARTESIAN_POINT('Origin',(17.,0.,0.));
#484=CARTESIAN_POINT('',(0.,0.,0.));
#485=CARTESIAN_POINT('',(0.,0.,0.));
#486=CARTESIAN_POINT('',(0.,0.,0.));
#487=CARTESIAN_POINT('Origin',(0.,1.5,0.));
#488=CARTESIAN_POINT('Origin',(0.,1.5,0.));
#489=CARTESIAN_POINT('Origin',(8.5,10.,0.));
#490=UNCERTAINTY_MEASURE_WITH_UNIT(LENGTH_MEASURE(0.01),#494,
'DISTANCE_ACCURACY_VALUE',
'Maximum model space distance between geometric entities at asserted c
onnectivities');
#491=UNCERTAINTY_MEASURE_WITH_UNIT(LENGTH_MEASURE(0.01),#494,
'DISTANCE_ACCURACY_VALUE',
'Maximum model space distance between geometric entities at asserted c
onnectivities');
#492=(
GEOMETRIC_REPRESENTATION_CONTEXT(3)
GLOBAL_UNCERTAINTY_ASSIGNED_CONTEXT((#490))
GLOBAL_UNIT_ASSIGNED_CONTEXT((#494,#497,#496))
REPRESENTATION_CONTEXT('','3D')
);
#493=(
GEOMETRIC_REPRESENTATION_CONTEXT(3)
GLOBAL_UNCERTAINTY_ASSIGNED_CONTEXT((#491))
GLOBAL_UNIT_ASSIGNED_CONTEXT((#494,#497,#496))
REPRESENTATION_CONTEXT('','3D')
);
#494=(
LENGTH_UNIT()
NAMED_UNIT(*)
SI_UNIT(.MILLI.,.METRE.)
);
#495=(
LENGTH_UNIT()
NAMED_UNIT(*)
SI_UNIT(.CENTI.,.METRE.)
);
#496=(
NAMED_UNIT(*)
SI_UNIT($,.STERADIAN.)
SOLID_ANGLE_UNIT()
);
#497=(
NAMED_UNIT(*)
PLANE_ANGLE_UNIT()
SI_UNIT($,.RADIAN.)
);
#498=SHAPE_DEFINITION_REPRESENTATION(#499,#500);
#499=PRODUCT_DEFINITION_SHAPE('',$,#502);
#500=SHAPE_REPRESENTATION('',(#290),#492);
#501=PRODUCT_DEFINITION_CONTEXT('part definition',#506,'design');
#502=PRODUCT_DEFINITION('AI-4026_Abdeckkappe_20x20_grau-5',
'AI-4026_Abdeckkappe_20x20_grau-5',#503,#501);
#503=PRODUCT_DEFINITION_FORMATION('',$,#508);
#504=PRODUCT_RELATED_PRODUCT_CATEGORY(
'AI-4026_Abdeckkappe_20x20_grau-5','AI-4026_Abdeckkappe_20x20_grau-5',(#508));
#505=APPLICATION_PROTOCOL_DEFINITION('international standard',
'automotive_design',2009,#506);
#506=APPLICATION_CONTEXT(
'Core Data for Automotive Mechanical Design Process');
#507=PRODUCT_CONTEXT('part definition',#506,'mechanical');
#508=PRODUCT('AI-4026_Abdeckkappe_20x20_grau-5',
'AI-4026_Abdeckkappe_20x20_grau-5',$,(#507));
#509=PRESENTATION_STYLE_ASSIGNMENT((#511));
#510=PRESENTATION_STYLE_ASSIGNMENT((#512));
#511=SURFACE_STYLE_USAGE(.BOTH.,#513);
#512=SURFACE_STYLE_USAGE(.BOTH.,#514);
#513=SURFACE_SIDE_STYLE('',(#515));
#514=SURFACE_SIDE_STYLE('',(#516));
#515=SURFACE_STYLE_FILL_AREA(#517);
#516=SURFACE_STYLE_FILL_AREA(#518);
#517=FILL_AREA_STYLE('',(#519));
#518=FILL_AREA_STYLE('',(#520));
#519=FILL_AREA_STYLE_COLOUR('',#521);
#520=FILL_AREA_STYLE_COLOUR('',#522);
#521=COLOUR_RGB('',0.749019607843137,0.749019607843137,0.749019607843137);
#522=COLOUR_RGB('',0.6,0.6,0.6);
ENDSEC;
END-ISO-10303-21;
