ISO-10303-21;
HEADER;
/* Generated by software containing ST-Developer
 * from STEP Tools, Inc. (www.steptools.com) 
 */

FILE_DESCRIPTION(
/* description */ (''),
/* implementation_level */ '2;1');

FILE_NAME(
/* name */ 
'M:\\Inventor Vorlage\\1_I-Baukasten\\4_Abdeckelemente\\1_Abdeckung_de
r_Stirnseite\\Nut_8\\AI-1050_Abdeckkappe_40x40_45\X\B0_schwarz-8\\AI-1
050_Abdeckkappe_40x40_45\X\B0-8.stp',
/* time_stamp */ '2020-07-20T13:41:06+02:00',
/* author */ ('jmaun'),
/* organization */ ('maunsystem'),
/* preprocessor_version */ 'ST-DEVELOPER v17',
/* originating_system */ 'Autodesk Inventor 2019',
/* authorisation */ '');

FILE_SCHEMA (('AUTOMOTIVE_DESIGN { 1 0 10303 214 3 1 1 }'));
ENDSEC;

DATA;
#10=MECHANICAL_DESIGN_GEOMETRIC_PRESENTATION_REPRESENTATION('',(#310,#311,
#312,#313,#314,#315,#316,#317,#318,#319,#320,#321,#322,#323,#324,#325,#326,
#327,#328,#329,#330,#331,#332),#624);
#11=SHAPE_REPRESENTATION_RELATIONSHIP('SRR','None',#631,#12);
#12=ADVANCED_BREP_SHAPE_REPRESENTATION('',(#13),#623);
#13=MANIFOLD_SOLID_BREP('Volumenk\X\F6rper1',#355);
#14=PLANE('',#400);
#15=PLANE('',#403);
#16=PLANE('',#406);
#17=PLANE('',#407);
#18=PLANE('',#410);
#19=PLANE('',#413);
#20=PLANE('',#416);
#21=SPHERICAL_SURFACE('',#384,2.5);
#22=SPHERICAL_SURFACE('',#389,2.5);
#23=SPHERICAL_SURFACE('',#391,2.5);
#24=SPHERICAL_SURFACE('',#396,2.5);
#25=SPHERICAL_SURFACE('',#398,2.5);
#26=FACE_OUTER_BOUND('',#48,.T.);
#27=FACE_OUTER_BOUND('',#49,.T.);
#28=FACE_OUTER_BOUND('',#50,.T.);
#29=FACE_OUTER_BOUND('',#51,.T.);
#30=FACE_OUTER_BOUND('',#52,.T.);
#31=FACE_OUTER_BOUND('',#53,.T.);
#32=FACE_OUTER_BOUND('',#54,.T.);
#33=FACE_OUTER_BOUND('',#55,.T.);
#34=FACE_OUTER_BOUND('',#56,.T.);
#35=FACE_OUTER_BOUND('',#57,.T.);
#36=FACE_OUTER_BOUND('',#58,.T.);
#37=FACE_OUTER_BOUND('',#59,.T.);
#38=FACE_OUTER_BOUND('',#60,.T.);
#39=FACE_OUTER_BOUND('',#61,.T.);
#40=FACE_OUTER_BOUND('',#62,.T.);
#41=FACE_OUTER_BOUND('',#63,.T.);
#42=FACE_OUTER_BOUND('',#64,.T.);
#43=FACE_OUTER_BOUND('',#65,.T.);
#44=FACE_OUTER_BOUND('',#66,.T.);
#45=FACE_OUTER_BOUND('',#67,.T.);
#46=FACE_OUTER_BOUND('',#68,.T.);
#47=FACE_OUTER_BOUND('',#69,.T.);
#48=EDGE_LOOP('',(#210,#211,#212,#213));
#49=EDGE_LOOP('',(#214,#215,#216,#217));
#50=EDGE_LOOP('',(#218,#219,#220,#221));
#51=EDGE_LOOP('',(#222,#223,#224));
#52=EDGE_LOOP('',(#225,#226,#227,#228));
#53=EDGE_LOOP('',(#229,#230,#231));
#54=EDGE_LOOP('',(#232,#233,#234));
#55=EDGE_LOOP('',(#235,#236,#237,#238));
#56=EDGE_LOOP('',(#239,#240,#241));
#57=EDGE_LOOP('',(#242,#243,#244));
#58=EDGE_LOOP('',(#245,#246,#247,#248));
#59=EDGE_LOOP('',(#249,#250,#251,#252));
#60=EDGE_LOOP('',(#253,#254,#255,#256));
#61=EDGE_LOOP('',(#257,#258,#259,#260));
#62=EDGE_LOOP('',(#261,#262,#263,#264));
#63=EDGE_LOOP('',(#265,#266,#267,#268,#269));
#64=EDGE_LOOP('',(#270,#271,#272,#273));
#65=EDGE_LOOP('',(#274,#275,#276,#277));
#66=EDGE_LOOP('',(#278,#279,#280,#281));
#67=EDGE_LOOP('',(#282,#283,#284,#285));
#68=EDGE_LOOP('',(#286,#287,#288,#289));
#69=EDGE_LOOP('',(#290,#291,#292,#293,#294,#295,#296,#297,#298,#299));
#70=LINE('',#534,#95);
#71=LINE('',#537,#96);
#72=LINE('',#542,#97);
#73=LINE('',#545,#98);
#74=LINE('',#550,#99);
#75=LINE('',#553,#100);
#76=LINE('',#560,#101);
#77=LINE('',#563,#102);
#78=LINE('',#571,#103);
#79=LINE('',#574,#104);
#80=LINE('',#581,#105);
#81=LINE('',#583,#106);
#82=LINE('',#584,#107);
#83=LINE('',#587,#108);
#84=LINE('',#591,#109);
#85=LINE('',#592,#110);
#86=LINE('',#595,#111);
#87=LINE('',#599,#112);
#88=LINE('',#600,#113);
#89=LINE('',#604,#114);
#90=LINE('',#608,#115);
#91=LINE('',#609,#116);
#92=LINE('',#612,#117);
#93=LINE('',#616,#118);
#94=LINE('',#617,#119);
#95=VECTOR('',#423,35.);
#96=VECTOR('',#426,35.);
#97=VECTOR('',#431,8.16446604942909);
#98=VECTOR('',#434,8.16446605);
#99=VECTOR('',#439,37.9511760631417);
#100=VECTOR('',#442,37.9511760656136);
#101=VECTOR('',#451,8.16446604993586);
#102=VECTOR('',#454,8.16446605);
#103=VECTOR('',#467,34.999999998007);
#104=VECTOR('',#470,35.);
#105=VECTOR('',#481,1.5);
#106=VECTOR('',#482,37.9511760656136);
#107=VECTOR('',#483,1.5);
#108=VECTOR('',#486,1.5);
#109=VECTOR('',#491,1.5);
#110=VECTOR('',#492,8.16446605);
#111=VECTOR('',#495,1.5);
#112=VECTOR('',#500,1.5);
#113=VECTOR('',#501,35.);
#114=VECTOR('',#506,1.5);
#115=VECTOR('',#511,1.5);
#116=VECTOR('',#512,35.);
#117=VECTOR('',#515,1.5);
#118=VECTOR('',#520,1.5);
#119=VECTOR('',#521,8.16446605);
#120=CIRCLE('',#376,2.5);
#121=CIRCLE('',#377,2.5);
#122=CIRCLE('',#379,2.5);
#123=CIRCLE('',#380,2.5);
#124=CIRCLE('',#382,2.5);
#125=CIRCLE('',#383,2.5);
#126=CIRCLE('',#385,2.49999999580496);
#127=CIRCLE('',#387,2.5);
#128=CIRCLE('',#388,2.5);
#129=CIRCLE('',#390,2.49999999999998);
#130=CIRCLE('',#392,2.5);
#131=CIRCLE('',#394,2.5);
#132=CIRCLE('',#395,2.5);
#133=CIRCLE('',#397,2.49999999999999);
#134=CIRCLE('',#399,2.5);
#135=CIRCLE('',#402,2.49999999999998);
#136=CIRCLE('',#405,2.49999999999999);
#137=CIRCLE('',#409,2.5);
#138=CIRCLE('',#412,2.5);
#139=CIRCLE('',#415,2.49999999580496);
#140=VERTEX_POINT('',#530);
#141=VERTEX_POINT('',#531);
#142=VERTEX_POINT('',#533);
#143=VERTEX_POINT('',#535);
#144=VERTEX_POINT('',#539);
#145=VERTEX_POINT('',#541);
#146=VERTEX_POINT('',#543);
#147=VERTEX_POINT('',#547);
#148=VERTEX_POINT('',#549);
#149=VERTEX_POINT('',#551);
#150=VERTEX_POINT('',#557);
#151=VERTEX_POINT('',#559);
#152=VERTEX_POINT('',#561);
#153=VERTEX_POINT('',#569);
#154=VERTEX_POINT('',#572);
#155=VERTEX_POINT('',#580);
#156=VERTEX_POINT('',#582);
#157=VERTEX_POINT('',#586);
#158=VERTEX_POINT('',#590);
#159=VERTEX_POINT('',#594);
#160=VERTEX_POINT('',#598);
#161=VERTEX_POINT('',#603);
#162=VERTEX_POINT('',#607);
#163=VERTEX_POINT('',#611);
#164=VERTEX_POINT('',#615);
#165=EDGE_CURVE('',#140,#141,#120,.T.);
#166=EDGE_CURVE('',#141,#142,#70,.T.);
#167=EDGE_CURVE('',#142,#143,#121,.T.);
#168=EDGE_CURVE('',#143,#140,#71,.T.);
#169=EDGE_CURVE('',#144,#142,#122,.T.);
#170=EDGE_CURVE('',#142,#145,#72,.T.);
#171=EDGE_CURVE('',#145,#146,#123,.T.);
#172=EDGE_CURVE('',#146,#144,#73,.T.);
#173=EDGE_CURVE('',#147,#145,#124,.T.);
#174=EDGE_CURVE('',#145,#148,#74,.T.);
#175=EDGE_CURVE('',#148,#149,#125,.T.);
#176=EDGE_CURVE('',#149,#147,#75,.T.);
#177=EDGE_CURVE('',#147,#146,#126,.T.);
#178=EDGE_CURVE('',#150,#148,#127,.T.);
#179=EDGE_CURVE('',#148,#151,#76,.T.);
#180=EDGE_CURVE('',#151,#152,#128,.T.);
#181=EDGE_CURVE('',#152,#150,#77,.T.);
#182=EDGE_CURVE('',#150,#149,#129,.T.);
#183=EDGE_CURVE('',#144,#143,#130,.T.);
#184=EDGE_CURVE('',#153,#151,#131,.T.);
#185=EDGE_CURVE('',#151,#141,#78,.T.);
#186=EDGE_CURVE('',#141,#154,#132,.T.);
#187=EDGE_CURVE('',#154,#153,#79,.T.);
#188=EDGE_CURVE('',#153,#152,#133,.T.);
#189=EDGE_CURVE('',#140,#154,#134,.T.);
#190=EDGE_CURVE('',#155,#149,#80,.T.);
#191=EDGE_CURVE('',#155,#156,#81,.T.);
#192=EDGE_CURVE('',#156,#147,#82,.T.);
#193=EDGE_CURVE('',#157,#150,#83,.T.);
#194=EDGE_CURVE('',#157,#155,#135,.T.);
#195=EDGE_CURVE('',#158,#152,#84,.T.);
#196=EDGE_CURVE('',#158,#157,#85,.T.);
#197=EDGE_CURVE('',#159,#153,#86,.T.);
#198=EDGE_CURVE('',#159,#158,#136,.T.);
#199=EDGE_CURVE('',#160,#154,#87,.T.);
#200=EDGE_CURVE('',#160,#159,#88,.T.);
#201=EDGE_CURVE('',#161,#140,#89,.T.);
#202=EDGE_CURVE('',#161,#160,#137,.T.);
#203=EDGE_CURVE('',#162,#143,#90,.T.);
#204=EDGE_CURVE('',#162,#161,#91,.T.);
#205=EDGE_CURVE('',#163,#144,#92,.T.);
#206=EDGE_CURVE('',#163,#162,#138,.T.);
#207=EDGE_CURVE('',#164,#146,#93,.T.);
#208=EDGE_CURVE('',#164,#163,#94,.T.);
#209=EDGE_CURVE('',#156,#164,#139,.T.);
#210=ORIENTED_EDGE('',*,*,#165,.T.);
#211=ORIENTED_EDGE('',*,*,#166,.T.);
#212=ORIENTED_EDGE('',*,*,#167,.T.);
#213=ORIENTED_EDGE('',*,*,#168,.T.);
#214=ORIENTED_EDGE('',*,*,#169,.T.);
#215=ORIENTED_EDGE('',*,*,#170,.T.);
#216=ORIENTED_EDGE('',*,*,#171,.T.);
#217=ORIENTED_EDGE('',*,*,#172,.T.);
#218=ORIENTED_EDGE('',*,*,#173,.T.);
#219=ORIENTED_EDGE('',*,*,#174,.T.);
#220=ORIENTED_EDGE('',*,*,#175,.T.);
#221=ORIENTED_EDGE('',*,*,#176,.T.);
#222=ORIENTED_EDGE('',*,*,#173,.F.);
#223=ORIENTED_EDGE('',*,*,#177,.T.);
#224=ORIENTED_EDGE('',*,*,#171,.F.);
#225=ORIENTED_EDGE('',*,*,#178,.T.);
#226=ORIENTED_EDGE('',*,*,#179,.T.);
#227=ORIENTED_EDGE('',*,*,#180,.T.);
#228=ORIENTED_EDGE('',*,*,#181,.T.);
#229=ORIENTED_EDGE('',*,*,#178,.F.);
#230=ORIENTED_EDGE('',*,*,#182,.T.);
#231=ORIENTED_EDGE('',*,*,#175,.F.);
#232=ORIENTED_EDGE('',*,*,#169,.F.);
#233=ORIENTED_EDGE('',*,*,#183,.T.);
#234=ORIENTED_EDGE('',*,*,#167,.F.);
#235=ORIENTED_EDGE('',*,*,#184,.T.);
#236=ORIENTED_EDGE('',*,*,#185,.T.);
#237=ORIENTED_EDGE('',*,*,#186,.T.);
#238=ORIENTED_EDGE('',*,*,#187,.T.);
#239=ORIENTED_EDGE('',*,*,#184,.F.);
#240=ORIENTED_EDGE('',*,*,#188,.T.);
#241=ORIENTED_EDGE('',*,*,#180,.F.);
#242=ORIENTED_EDGE('',*,*,#165,.F.);
#243=ORIENTED_EDGE('',*,*,#189,.T.);
#244=ORIENTED_EDGE('',*,*,#186,.F.);
#245=ORIENTED_EDGE('',*,*,#176,.F.);
#246=ORIENTED_EDGE('',*,*,#190,.F.);
#247=ORIENTED_EDGE('',*,*,#191,.T.);
#248=ORIENTED_EDGE('',*,*,#192,.T.);
#249=ORIENTED_EDGE('',*,*,#182,.F.);
#250=ORIENTED_EDGE('',*,*,#193,.F.);
#251=ORIENTED_EDGE('',*,*,#194,.T.);
#252=ORIENTED_EDGE('',*,*,#190,.T.);
#253=ORIENTED_EDGE('',*,*,#181,.F.);
#254=ORIENTED_EDGE('',*,*,#195,.F.);
#255=ORIENTED_EDGE('',*,*,#196,.T.);
#256=ORIENTED_EDGE('',*,*,#193,.T.);
#257=ORIENTED_EDGE('',*,*,#188,.F.);
#258=ORIENTED_EDGE('',*,*,#197,.F.);
#259=ORIENTED_EDGE('',*,*,#198,.T.);
#260=ORIENTED_EDGE('',*,*,#195,.T.);
#261=ORIENTED_EDGE('',*,*,#187,.F.);
#262=ORIENTED_EDGE('',*,*,#199,.F.);
#263=ORIENTED_EDGE('',*,*,#200,.T.);
#264=ORIENTED_EDGE('',*,*,#197,.T.);
#265=ORIENTED_EDGE('',*,*,#166,.F.);
#266=ORIENTED_EDGE('',*,*,#185,.F.);
#267=ORIENTED_EDGE('',*,*,#179,.F.);
#268=ORIENTED_EDGE('',*,*,#174,.F.);
#269=ORIENTED_EDGE('',*,*,#170,.F.);
#270=ORIENTED_EDGE('',*,*,#189,.F.);
#271=ORIENTED_EDGE('',*,*,#201,.F.);
#272=ORIENTED_EDGE('',*,*,#202,.T.);
#273=ORIENTED_EDGE('',*,*,#199,.T.);
#274=ORIENTED_EDGE('',*,*,#168,.F.);
#275=ORIENTED_EDGE('',*,*,#203,.F.);
#276=ORIENTED_EDGE('',*,*,#204,.T.);
#277=ORIENTED_EDGE('',*,*,#201,.T.);
#278=ORIENTED_EDGE('',*,*,#183,.F.);
#279=ORIENTED_EDGE('',*,*,#205,.F.);
#280=ORIENTED_EDGE('',*,*,#206,.T.);
#281=ORIENTED_EDGE('',*,*,#203,.T.);
#282=ORIENTED_EDGE('',*,*,#172,.F.);
#283=ORIENTED_EDGE('',*,*,#207,.F.);
#284=ORIENTED_EDGE('',*,*,#208,.T.);
#285=ORIENTED_EDGE('',*,*,#205,.T.);
#286=ORIENTED_EDGE('',*,*,#177,.F.);
#287=ORIENTED_EDGE('',*,*,#192,.F.);
#288=ORIENTED_EDGE('',*,*,#209,.T.);
#289=ORIENTED_EDGE('',*,*,#207,.T.);
#290=ORIENTED_EDGE('',*,*,#191,.F.);
#291=ORIENTED_EDGE('',*,*,#194,.F.);
#292=ORIENTED_EDGE('',*,*,#196,.F.);
#293=ORIENTED_EDGE('',*,*,#198,.F.);
#294=ORIENTED_EDGE('',*,*,#200,.F.);
#295=ORIENTED_EDGE('',*,*,#202,.F.);
#296=ORIENTED_EDGE('',*,*,#204,.F.);
#297=ORIENTED_EDGE('',*,*,#206,.F.);
#298=ORIENTED_EDGE('',*,*,#208,.F.);
#299=ORIENTED_EDGE('',*,*,#209,.F.);
#300=CYLINDRICAL_SURFACE('',#375,2.5);
#301=CYLINDRICAL_SURFACE('',#378,2.5);
#302=CYLINDRICAL_SURFACE('',#381,2.5);
#303=CYLINDRICAL_SURFACE('',#386,2.5);
#304=CYLINDRICAL_SURFACE('',#393,2.5);
#305=CYLINDRICAL_SURFACE('',#401,2.49999999999998);
#306=CYLINDRICAL_SURFACE('',#404,2.49999999999999);
#307=CYLINDRICAL_SURFACE('',#408,2.5);
#308=CYLINDRICAL_SURFACE('',#411,2.5);
#309=CYLINDRICAL_SURFACE('',#414,2.49999999580496);
#310=STYLED_ITEM('',(#642),#333);
#311=STYLED_ITEM('',(#642),#334);
#312=STYLED_ITEM('',(#642),#335);
#313=STYLED_ITEM('',(#642),#336);
#314=STYLED_ITEM('',(#642),#337);
#315=STYLED_ITEM('',(#642),#338);
#316=STYLED_ITEM('',(#642),#339);
#317=STYLED_ITEM('',(#642),#340);
#318=STYLED_ITEM('',(#642),#341);
#319=STYLED_ITEM('',(#642),#342);
#320=STYLED_ITEM('',(#642),#343);
#321=STYLED_ITEM('',(#642),#344);
#322=STYLED_ITEM('',(#642),#345);
#323=STYLED_ITEM('',(#642),#346);
#324=STYLED_ITEM('',(#642),#347);
#325=STYLED_ITEM('',(#642),#348);
#326=STYLED_ITEM('',(#642),#349);
#327=STYLED_ITEM('',(#642),#350);
#328=STYLED_ITEM('',(#642),#351);
#329=STYLED_ITEM('',(#642),#352);
#330=STYLED_ITEM('',(#642),#353);
#331=STYLED_ITEM('',(#642),#354);
#332=STYLED_ITEM('',(#641),#13);
#333=ADVANCED_FACE('',(#26),#300,.T.);
#334=ADVANCED_FACE('',(#27),#301,.T.);
#335=ADVANCED_FACE('',(#28),#302,.T.);
#336=ADVANCED_FACE('',(#29),#21,.T.);
#337=ADVANCED_FACE('',(#30),#303,.T.);
#338=ADVANCED_FACE('',(#31),#22,.T.);
#339=ADVANCED_FACE('',(#32),#23,.T.);
#340=ADVANCED_FACE('',(#33),#304,.T.);
#341=ADVANCED_FACE('',(#34),#24,.T.);
#342=ADVANCED_FACE('',(#35),#25,.T.);
#343=ADVANCED_FACE('',(#36),#14,.T.);
#344=ADVANCED_FACE('',(#37),#305,.T.);
#345=ADVANCED_FACE('',(#38),#15,.T.);
#346=ADVANCED_FACE('',(#39),#306,.T.);
#347=ADVANCED_FACE('',(#40),#16,.T.);
#348=ADVANCED_FACE('',(#41),#17,.T.);
#349=ADVANCED_FACE('',(#42),#307,.T.);
#350=ADVANCED_FACE('',(#43),#18,.T.);
#351=ADVANCED_FACE('',(#44),#308,.T.);
#352=ADVANCED_FACE('',(#45),#19,.T.);
#353=ADVANCED_FACE('',(#46),#309,.T.);
#354=ADVANCED_FACE('',(#47),#20,.F.);
#355=CLOSED_SHELL('',(#333,#334,#335,#336,#337,#338,#339,#340,#341,#342,
#343,#344,#345,#346,#347,#348,#349,#350,#351,#352,#353,#354));
#356=DERIVED_UNIT_ELEMENT(#358,1.);
#357=DERIVED_UNIT_ELEMENT(#626,3.);
#358=(
MASS_UNIT()
NAMED_UNIT(*)
SI_UNIT($,.GRAM.)
);
#359=DERIVED_UNIT((#356,#357));
#360=MEASURE_REPRESENTATION_ITEM('density measure',
POSITIVE_RATIO_MEASURE(1.),#359);
#361=PROPERTY_DEFINITION_REPRESENTATION(#366,#363);
#362=PROPERTY_DEFINITION_REPRESENTATION(#367,#364);
#363=REPRESENTATION('material name',(#365),#623);
#364=REPRESENTATION('density',(#360),#623);
#365=DESCRIPTIVE_REPRESENTATION_ITEM('Generisch','Generisch');
#366=PROPERTY_DEFINITION('material property','material name',#633);
#367=PROPERTY_DEFINITION('material property','density of part',#633);
#368=DATE_TIME_ROLE('creation_date');
#369=APPLIED_DATE_AND_TIME_ASSIGNMENT(#370,#368,(#633));
#370=DATE_AND_TIME(#371,#372);
#371=CALENDAR_DATE(2019,7,6);
#372=LOCAL_TIME(15,40,14.,#373);
#373=COORDINATED_UNIVERSAL_TIME_OFFSET(0,0,.BEHIND.);
#374=AXIS2_PLACEMENT_3D('placement',#528,#417,#418);
#375=AXIS2_PLACEMENT_3D('',#529,#419,#420);
#376=AXIS2_PLACEMENT_3D('',#532,#421,#422);
#377=AXIS2_PLACEMENT_3D('',#536,#424,#425);
#378=AXIS2_PLACEMENT_3D('',#538,#427,#428);
#379=AXIS2_PLACEMENT_3D('',#540,#429,#430);
#380=AXIS2_PLACEMENT_3D('',#544,#432,#433);
#381=AXIS2_PLACEMENT_3D('',#546,#435,#436);
#382=AXIS2_PLACEMENT_3D('',#548,#437,#438);
#383=AXIS2_PLACEMENT_3D('',#552,#440,#441);
#384=AXIS2_PLACEMENT_3D('',#554,#443,#444);
#385=AXIS2_PLACEMENT_3D('',#555,#445,#446);
#386=AXIS2_PLACEMENT_3D('',#556,#447,#448);
#387=AXIS2_PLACEMENT_3D('',#558,#449,#450);
#388=AXIS2_PLACEMENT_3D('',#562,#452,#453);
#389=AXIS2_PLACEMENT_3D('',#564,#455,#456);
#390=AXIS2_PLACEMENT_3D('',#565,#457,#458);
#391=AXIS2_PLACEMENT_3D('',#566,#459,#460);
#392=AXIS2_PLACEMENT_3D('',#567,#461,#462);
#393=AXIS2_PLACEMENT_3D('',#568,#463,#464);
#394=AXIS2_PLACEMENT_3D('',#570,#465,#466);
#395=AXIS2_PLACEMENT_3D('',#573,#468,#469);
#396=AXIS2_PLACEMENT_3D('',#575,#471,#472);
#397=AXIS2_PLACEMENT_3D('',#576,#473,#474);
#398=AXIS2_PLACEMENT_3D('',#577,#475,#476);
#399=AXIS2_PLACEMENT_3D('',#578,#477,#478);
#400=AXIS2_PLACEMENT_3D('',#579,#479,#480);
#401=AXIS2_PLACEMENT_3D('',#585,#484,#485);
#402=AXIS2_PLACEMENT_3D('',#588,#487,#488);
#403=AXIS2_PLACEMENT_3D('',#589,#489,#490);
#404=AXIS2_PLACEMENT_3D('',#593,#493,#494);
#405=AXIS2_PLACEMENT_3D('',#596,#496,#497);
#406=AXIS2_PLACEMENT_3D('',#597,#498,#499);
#407=AXIS2_PLACEMENT_3D('',#601,#502,#503);
#408=AXIS2_PLACEMENT_3D('',#602,#504,#505);
#409=AXIS2_PLACEMENT_3D('',#605,#507,#508);
#410=AXIS2_PLACEMENT_3D('',#606,#509,#510);
#411=AXIS2_PLACEMENT_3D('',#610,#513,#514);
#412=AXIS2_PLACEMENT_3D('',#613,#516,#517);
#413=AXIS2_PLACEMENT_3D('',#614,#518,#519);
#414=AXIS2_PLACEMENT_3D('',#618,#522,#523);
#415=AXIS2_PLACEMENT_3D('',#619,#524,#525);
#416=AXIS2_PLACEMENT_3D('',#620,#526,#527);
#417=DIRECTION('axis',(0.,0.,1.));
#418=DIRECTION('refdir',(1.,0.,0.));
#419=DIRECTION('center_axis',(-1.,7.923826E-33,0.));
#420=DIRECTION('ref_axis',(-5.60299109754228E-33,-0.707106781186548,0.707106781186548));
#421=DIRECTION('center_axis',(-1.,0.,0.));
#422=DIRECTION('ref_axis',(0.,-1.,0.));
#423=DIRECTION('',(-1.,0.,0.));
#424=DIRECTION('center_axis',(1.,0.,0.));
#425=DIRECTION('ref_axis',(0.,0.,1.));
#426=DIRECTION('',(1.,0.,0.));
#427=DIRECTION('center_axis',(2.283633E-10,1.,0.));
#428=DIRECTION('ref_axis',(-0.707106781186547,1.61477238004138E-10,0.707106781186548));
#429=DIRECTION('center_axis',(2.283633E-10,1.,0.));
#430=DIRECTION('ref_axis',(-1.,2.283633E-10,0.));
#431=DIRECTION('',(2.283633E-10,1.,0.));
#432=DIRECTION('center_axis',(-2.283631E-10,-1.,0.));
#433=DIRECTION('ref_axis',(0.,0.,1.));
#434=DIRECTION('',(-2.283633E-10,-1.,0.));
#435=DIRECTION('center_axis',(0.7071067811609,0.707106781212195,0.));
#436=DIRECTION('ref_axis',(-0.500000000018136,0.499999999981865,0.707106781186547));
#437=DIRECTION('center_axis',(0.707106781160901,0.707106781212194,0.));
#438=DIRECTION('ref_axis',(-0.707106781212194,0.707106781160901,0.));
#439=DIRECTION('',(0.7071067811609,0.707106781212195,0.));
#440=DIRECTION('center_axis',(-0.707106781160899,-0.707106781212196,0.));
#441=DIRECTION('ref_axis',(0.,0.,1.));
#442=DIRECTION('',(-0.7071067811609,-0.707106781212195,0.));
#443=DIRECTION('center_axis',(6.12323399409214E-17,0.,1.));
#444=DIRECTION('ref_axis',(1.,0.,0.));
#445=DIRECTION('center_axis',(0.,0.,1.));
#446=DIRECTION('ref_axis',(-0.707106781186548,0.707106781186547,0.));
#447=DIRECTION('center_axis',(1.,0.,0.));
#448=DIRECTION('ref_axis',(0.,0.707106781186548,0.707106781186548));
#449=DIRECTION('center_axis',(1.,0.,0.));
#450=DIRECTION('ref_axis',(0.,1.,0.));
#451=DIRECTION('',(1.,0.,0.));
#452=DIRECTION('center_axis',(-1.,0.,0.));
#453=DIRECTION('ref_axis',(0.,0.,1.));
#454=DIRECTION('',(-1.,0.,0.));
#455=DIRECTION('center_axis',(0.,0.,1.));
#456=DIRECTION('ref_axis',(1.,0.,0.));
#457=DIRECTION('center_axis',(0.,0.,1.));
#458=DIRECTION('ref_axis',(0.,1.,0.));
#459=DIRECTION('center_axis',(6.12323399573677E-17,0.,1.));
#460=DIRECTION('ref_axis',(1.,0.,0.));
#461=DIRECTION('center_axis',(0.,0.,1.));
#462=DIRECTION('ref_axis',(-1.,0.,0.));
#463=DIRECTION('center_axis',(1.268826E-16,-1.,0.));
#464=DIRECTION('ref_axis',(0.707106781186548,8.97195468745802E-17,0.707106781186548));
#465=DIRECTION('center_axis',(0.,-1.,0.));
#466=DIRECTION('ref_axis',(1.,0.,0.));
#467=DIRECTION('',(0.,-1.,0.));
#468=DIRECTION('center_axis',(0.,1.,0.));
#469=DIRECTION('ref_axis',(0.,0.,1.));
#470=DIRECTION('',(0.,1.,0.));
#471=DIRECTION('center_axis',(0.,0.,1.));
#472=DIRECTION('ref_axis',(1.,0.,0.));
#473=DIRECTION('center_axis',(0.,0.,1.));
#474=DIRECTION('ref_axis',(1.,7.972023E-10,0.));
#475=DIRECTION('center_axis',(0.,0.,1.));
#476=DIRECTION('ref_axis',(1.,0.,0.));
#477=DIRECTION('center_axis',(0.,0.,1.));
#478=DIRECTION('ref_axis',(0.,-1.,0.));
#479=DIRECTION('center_axis',(-0.707106781212195,0.7071067811609,0.));
#480=DIRECTION('ref_axis',(0.,0.,1.));
#481=DIRECTION('',(0.,0.,1.));
#482=DIRECTION('',(-0.7071067811609,-0.707106781212195,0.));
#483=DIRECTION('',(0.,0.,1.));
#484=DIRECTION('center_axis',(0.,0.,1.));
#485=DIRECTION('ref_axis',(0.,1.,0.));
#486=DIRECTION('',(0.,0.,1.));
#487=DIRECTION('center_axis',(0.,0.,1.));
#488=DIRECTION('ref_axis',(0.,1.,0.));
#489=DIRECTION('center_axis',(0.,1.,0.));
#490=DIRECTION('ref_axis',(0.,0.,1.));
#491=DIRECTION('',(0.,0.,1.));
#492=DIRECTION('',(-1.,0.,0.));
#493=DIRECTION('center_axis',(0.,0.,1.));
#494=DIRECTION('ref_axis',(1.,7.972023E-10,0.));
#495=DIRECTION('',(0.,0.,1.));
#496=DIRECTION('center_axis',(0.,0.,1.));
#497=DIRECTION('ref_axis',(1.,7.972023E-10,0.));
#498=DIRECTION('center_axis',(1.,0.,0.));
#499=DIRECTION('ref_axis',(0.,0.,-1.));
#500=DIRECTION('',(0.,0.,1.));
#501=DIRECTION('',(0.,1.,0.));
#502=DIRECTION('center_axis',(0.,0.,1.));
#503=DIRECTION('ref_axis',(1.,0.,0.));
#504=DIRECTION('center_axis',(0.,0.,1.));
#505=DIRECTION('ref_axis',(0.,-1.,0.));
#506=DIRECTION('',(0.,0.,1.));
#507=DIRECTION('center_axis',(0.,0.,1.));
#508=DIRECTION('ref_axis',(0.,-1.,0.));
#509=DIRECTION('center_axis',(0.,-1.,0.));
#510=DIRECTION('ref_axis',(0.,0.,-1.));
#511=DIRECTION('',(0.,0.,1.));
#512=DIRECTION('',(1.,0.,0.));
#513=DIRECTION('center_axis',(0.,0.,1.));
#514=DIRECTION('ref_axis',(-1.,0.,0.));
#515=DIRECTION('',(0.,0.,1.));
#516=DIRECTION('center_axis',(0.,0.,1.));
#517=DIRECTION('ref_axis',(-1.,0.,0.));
#518=DIRECTION('center_axis',(-1.,2.283633E-10,0.));
#519=DIRECTION('ref_axis',(0.,0.,1.));
#520=DIRECTION('',(0.,0.,1.));
#521=DIRECTION('',(-2.283633E-10,-1.,0.));
#522=DIRECTION('center_axis',(0.,0.,1.));
#523=DIRECTION('ref_axis',(-0.707106781186548,0.707106781186547,0.));
#524=DIRECTION('center_axis',(0.,0.,1.));
#525=DIRECTION('ref_axis',(-0.707106781186548,0.707106781186547,0.));
#526=DIRECTION('center_axis',(0.,0.,1.));
#527=DIRECTION('ref_axis',(1.,0.,0.));
#528=CARTESIAN_POINT('',(0.,0.,0.));
#529=CARTESIAN_POINT('Origin',(27.953128909092,2.5,1.5));
#530=CARTESIAN_POINT('',(35.,-2.773339E-31,1.5));
#531=CARTESIAN_POINT('',(35.,2.5,4.));
#532=CARTESIAN_POINT('Origin',(35.,2.5,1.5));
#533=CARTESIAN_POINT('',(-2.80576650106581E-16,2.49999999942909,4.));
#534=CARTESIAN_POINT('',(35.,2.5,4.));
#535=CARTESIAN_POINT('',(0.,0.,1.5));
#536=CARTESIAN_POINT('Origin',(0.,2.5,1.5));
#537=CARTESIAN_POINT('',(0.,2.214957E-31,1.5));
#538=CARTESIAN_POINT('Origin',(1.609246E-9,9.54687109271842,1.5));
#539=CARTESIAN_POINT('',(-2.5,2.5,1.5));
#540=CARTESIAN_POINT('Origin',(-4.336575E-16,2.49999999942909,1.5));
#541=CARTESIAN_POINT('',(9.91027986484373E-10,10.6644660476806,4.));
#542=CARTESIAN_POINT('',(-4.335271E-16,2.5,4.));
#543=CARTESIAN_POINT('',(-2.49999999842668,10.66446605,1.5));
#544=CARTESIAN_POINT('Origin',(1.864464E-9,10.6644660494291,1.5));
#545=CARTESIAN_POINT('',(-2.49999999813554,10.66446605,1.5));
#546=CARTESIAN_POINT('Origin',(6.70888348822571,17.3733495351103,1.5));
#547=CARTESIAN_POINT('',(-1.7677669523306,12.432233,1.5));
#548=CARTESIAN_POINT('Origin',(6.998824E-10,10.6644660470978,1.5));
#549=CARTESIAN_POINT('',(26.8355339497266,37.4999999980711,4.));
#550=CARTESIAN_POINT('',(2.447834E-9,10.6644660488457,4.));
#551=CARTESIAN_POINT('',(25.0677669966961,39.2677669509734,1.5));
#552=CARTESIAN_POINT('Origin',(26.8355339497266,37.4999999980711,1.5));
#553=CARTESIAN_POINT('',(25.0677669966961,39.2677669509734,1.5));
#554=CARTESIAN_POINT('Origin',(6.998824E-10,10.6644660470978,1.5));
#555=CARTESIAN_POINT('Origin',(-2.330577E-9,10.66446605,1.5));
#556=CARTESIAN_POINT('Origin',(23.8708958839232,37.499999998007,1.5));
#557=CARTESIAN_POINT('',(26.8355339496624,39.999999998007,1.5));
#558=CARTESIAN_POINT('Origin',(26.8355339496624,37.499999998007,1.5));
#559=CARTESIAN_POINT('',(34.9999999997468,37.4999999985052,4.));
#560=CARTESIAN_POINT('',(26.8355339497266,37.499999998007,4.));
#561=CARTESIAN_POINT('',(34.9999999996624,39.999999998007,1.5));
#562=CARTESIAN_POINT('Origin',(34.9999999996624,37.499999998007,1.5));
#563=CARTESIAN_POINT('',(34.9999999996624,39.999999998007,1.5));
#564=CARTESIAN_POINT('Origin',(26.8355339497266,37.4999999980711,1.5));
#565=CARTESIAN_POINT('Origin',(26.8355339496624,37.499999998007,1.5));
#566=CARTESIAN_POINT('Origin',(-4.336575E-16,2.49999999942909,1.5));
#567=CARTESIAN_POINT('Origin',(0.,2.50000000000001,1.5));
#568=CARTESIAN_POINT('Origin',(35.,27.0468710906168,1.5));
#569=CARTESIAN_POINT('',(37.5,37.5,1.5));
#570=CARTESIAN_POINT('Origin',(35.,37.5,1.5));
#571=CARTESIAN_POINT('',(35.,37.499999998007,4.));
#572=CARTESIAN_POINT('',(37.5,2.5,1.5));
#573=CARTESIAN_POINT('Origin',(35.,2.5,1.5));
#574=CARTESIAN_POINT('',(37.5,2.5,1.5));
#575=CARTESIAN_POINT('Origin',(34.9999999996624,37.499999998007,1.5));
#576=CARTESIAN_POINT('Origin',(35.,37.499999998007,1.5));
#577=CARTESIAN_POINT('Origin',(35.,2.5,1.5));
#578=CARTESIAN_POINT('Origin',(35.,2.5,1.5));
#579=CARTESIAN_POINT('Origin',(-1.7677669523306,12.432233,0.));
#580=CARTESIAN_POINT('',(25.0677669966961,39.2677669509734,0.));
#581=CARTESIAN_POINT('',(25.0677669966961,39.2677669509734,0.));
#582=CARTESIAN_POINT('',(-1.7677669523306,12.432233,0.));
#583=CARTESIAN_POINT('',(25.0677669966961,39.2677669509734,0.));
#584=CARTESIAN_POINT('',(-1.7677669523306,12.432233,0.));
#585=CARTESIAN_POINT('Origin',(26.8355339496624,37.499999998007,0.));
#586=CARTESIAN_POINT('',(26.8355339496624,39.999999998007,0.));
#587=CARTESIAN_POINT('',(26.8355339496624,39.999999998007,0.));
#588=CARTESIAN_POINT('Origin',(26.8355339496624,37.499999998007,0.));
#589=CARTESIAN_POINT('Origin',(26.8355339496624,39.999999998007,0.));
#590=CARTESIAN_POINT('',(34.9999999996624,39.999999998007,0.));
#591=CARTESIAN_POINT('',(34.9999999996624,39.999999998007,0.));
#592=CARTESIAN_POINT('',(34.9999999996624,39.999999998007,0.));
#593=CARTESIAN_POINT('Origin',(35.,37.499999998007,0.));
#594=CARTESIAN_POINT('',(37.5,37.5,0.));
#595=CARTESIAN_POINT('',(37.5,37.5,0.));
#596=CARTESIAN_POINT('Origin',(35.,37.499999998007,0.));
#597=CARTESIAN_POINT('Origin',(37.5,37.5,0.));
#598=CARTESIAN_POINT('',(37.5,2.5,0.));
#599=CARTESIAN_POINT('',(37.5,2.5,0.));
#600=CARTESIAN_POINT('',(37.5,2.5,0.));
#601=CARTESIAN_POINT('Origin',(20.906257818184,16.5937421812335,4.));
#602=CARTESIAN_POINT('Origin',(35.,2.5,0.));
#603=CARTESIAN_POINT('',(35.,-2.773339E-31,0.));
#604=CARTESIAN_POINT('',(35.,-2.773339E-31,0.));
#605=CARTESIAN_POINT('Origin',(35.,2.5,0.));
#606=CARTESIAN_POINT('Origin',(35.,-2.773339E-31,0.));
#607=CARTESIAN_POINT('',(0.,0.,0.));
#608=CARTESIAN_POINT('',(0.,0.,0.));
#609=CARTESIAN_POINT('',(0.,0.,0.));
#610=CARTESIAN_POINT('Origin',(0.,2.50000000000001,0.));
#611=CARTESIAN_POINT('',(-2.5,2.5,0.));
#612=CARTESIAN_POINT('',(-2.5,2.5,0.));
#613=CARTESIAN_POINT('Origin',(0.,2.50000000000001,0.));
#614=CARTESIAN_POINT('Origin',(-2.5,2.5,0.));
#615=CARTESIAN_POINT('',(-2.49999999813554,10.66446605,0.));
#616=CARTESIAN_POINT('',(-2.49999999813554,10.66446605,0.));
#617=CARTESIAN_POINT('',(-2.49999999813554,10.66446605,0.));
#618=CARTESIAN_POINT('Origin',(-2.330577E-9,10.66446605,0.));
#619=CARTESIAN_POINT('Origin',(-2.330577E-9,10.66446605,0.));
#620=CARTESIAN_POINT('Origin',(20.906257818184,16.5937421812335,0.));
#621=UNCERTAINTY_MEASURE_WITH_UNIT(LENGTH_MEASURE(0.01),#625,
'DISTANCE_ACCURACY_VALUE',
'Maximum model space distance between geometric entities at asserted c
onnectivities');
#622=UNCERTAINTY_MEASURE_WITH_UNIT(LENGTH_MEASURE(0.01),#625,
'DISTANCE_ACCURACY_VALUE',
'Maximum model space distance between geometric entities at asserted c
onnectivities');
#623=(
GEOMETRIC_REPRESENTATION_CONTEXT(3)
GLOBAL_UNCERTAINTY_ASSIGNED_CONTEXT((#621))
GLOBAL_UNIT_ASSIGNED_CONTEXT((#625,#628,#627))
REPRESENTATION_CONTEXT('','3D')
);
#624=(
GEOMETRIC_REPRESENTATION_CONTEXT(3)
GLOBAL_UNCERTAINTY_ASSIGNED_CONTEXT((#622))
GLOBAL_UNIT_ASSIGNED_CONTEXT((#625,#628,#627))
REPRESENTATION_CONTEXT('','3D')
);
#625=(
LENGTH_UNIT()
NAMED_UNIT(*)
SI_UNIT(.MILLI.,.METRE.)
);
#626=(
LENGTH_UNIT()
NAMED_UNIT(*)
SI_UNIT(.CENTI.,.METRE.)
);
#627=(
NAMED_UNIT(*)
SI_UNIT($,.STERADIAN.)
SOLID_ANGLE_UNIT()
);
#628=(
NAMED_UNIT(*)
PLANE_ANGLE_UNIT()
SI_UNIT($,.RADIAN.)
);
#629=SHAPE_DEFINITION_REPRESENTATION(#630,#631);
#630=PRODUCT_DEFINITION_SHAPE('',$,#633);
#631=SHAPE_REPRESENTATION('',(#374),#623);
#632=PRODUCT_DEFINITION_CONTEXT('part definition',#637,'design');
#633=PRODUCT_DEFINITION('AI-1050_Abdeckkappe_40x40_45\X\B0-8',
'AI-1050_Abdeckkappe_40x40_45\X\B0-8',#634,#632);
#634=PRODUCT_DEFINITION_FORMATION('',$,#639);
#635=PRODUCT_RELATED_PRODUCT_CATEGORY(
'AI-1050_Abdeckkappe_40x40_45\X\B0-8',
'AI-1050_Abdeckkappe_40x40_45\X\B0-8',(#639));
#636=APPLICATION_PROTOCOL_DEFINITION('international standard',
'automotive_design',2009,#637);
#637=APPLICATION_CONTEXT(
'Core Data for Automotive Mechanical Design Process');
#638=PRODUCT_CONTEXT('part definition',#637,'mechanical');
#639=PRODUCT('AI-1050_Abdeckkappe_40x40_45\X\B0-8',
'AI-1050_Abdeckkappe_40x40_45\X\B0-8',$,(#638));
#640=PRESENTATION_STYLE_ASSIGNMENT((#643));
#641=PRESENTATION_STYLE_ASSIGNMENT((#644));
#642=PRESENTATION_STYLE_ASSIGNMENT((#645));
#643=SURFACE_STYLE_USAGE(.BOTH.,#646);
#644=SURFACE_STYLE_USAGE(.BOTH.,#647);
#645=SURFACE_STYLE_USAGE(.BOTH.,#648);
#646=SURFACE_SIDE_STYLE('',(#649));
#647=SURFACE_SIDE_STYLE('',(#650));
#648=SURFACE_SIDE_STYLE('',(#651));
#649=SURFACE_STYLE_FILL_AREA(#652);
#650=SURFACE_STYLE_FILL_AREA(#653);
#651=SURFACE_STYLE_FILL_AREA(#654);
#652=FILL_AREA_STYLE('',(#655));
#653=FILL_AREA_STYLE('',(#656));
#654=FILL_AREA_STYLE('',(#657));
#655=FILL_AREA_STYLE_COLOUR('',#658);
#656=FILL_AREA_STYLE_COLOUR('',#659);
#657=FILL_AREA_STYLE_COLOUR('',#660);
#658=COLOUR_RGB('',0.749019607843137,0.749019607843137,0.749019607843137);
#659=COLOUR_RGB('',0.,0.,0.);
#660=COLOUR_RGB('',0.250980392156863,0.250980392156863,0.250980392156863);
ENDSEC;
END-ISO-10303-21;
